» » »

The Courteeners, Cavorting Tabs (ver.1)

Artists:  A B C D E F G H I J K L M N O P Q R S T U V W X Y Z # 

Cavorting Tabs (ver.1)

The Courteeners Tabs
Rating:
5/5 (5 votes)
Cavorting lessons Tabs too difficult? Try these video lessons and learn fast
                
tuning: stanadard EADGBe

intro

1st guitar 

e----------------------------|
B---8------8-------10---8----|
G----7------9-------11---9---| X4
D-9---9-10---10-12---10---10-|  
A----------------------------|
E----------------------------|

2nd guitar

e-777--7-------|-777r------|
B-888----8-----|-888r------|
G-777------7---|-777r------|
D-999--------9-|-999r------|
A--------------|-----------|
E--------------|-----------|


pre-verse

1st guitar

e-7-7------7--------7----888-10-|
B-8---8----8--8-----8--8--------|
G-7-----7--7-----7--7-----------|
D-------------------------------|
A-------------------------------|
E-------------------------------|

2nd guitar

e-7777777777777777777777778888-8-8--|
B-8888888888888888888888888888-8-8--|
G-7777777777777777777777777777-7-7--|
D-9999999999999999999999999999------|
A-----------------------------------|
E-----------------------------------|

verse

1st guitar

e-7-7-7-7-7-7-8-8-7-7-7-7-7-7-----7-7-7-7-7-7-8-8-7-8-8-10-10-10-|
B----------------------------10-10-------------------------------|
G----------------------------------------------------------------| x2
D----------------------------------------------------------------|
A----------------------------------------------------------------|
E----------------------------------------------------------------|

2nd guitar

e-7-|
B-8-|
G-7-| strummed repeatedly
D-9-|
A---|
E---|

pre-verse

1st guitar

e-7777777777777777777777778888-8-8--|
B-8888888888888888888888888888-8-8--|
G-7777777777777777777777777777-7-7--|
D-9999999999999999999999999999------|
A-----------------------------------|
E-----------------------------------|

2nd guitar

e-7-7------7-------7----888-10-|
B-8---8----8--8----8--8--------|
G-7-----7--7----7--7-----------|
D------------------------------|
A------------------------------|
E------------------------------|

verse

1st guitar

e-7-7-7-7-7-7-8-8-7-7-7-7-7-7-----7-7-7-7-7-7-8-8-7-8-8-10-10-10-|
B----------------------------10-10-------------------------------|
G----------------------------------------------------------------| x2
D----------------------------------------------------------------|
A----------------------------------------------------------------|
E----------------------------------------------------------------|

2nd guitar

e-7-|                       e-7-|
B-8-|                       B-7-|
G-7-| strummed repeatedly   G-7-| used at pause
D-9-|                       D-7-|
A---|                       A---|
E---|                       E---|


pre-chorus

1st guitar

e----------------------------------------|
B-8-8-8--8-8-8--8--8---8/10-10\8---8--8--|
G-7-7-7--7-7/9--9--9---9/11-11\9---9--9--|
D-9-9-9--9-9/10-10-10-10/12-12\10--10-10-|
A----------------------------------------|
E----------------------------------------|

2nd guitar

e-7-|
B-8-|
G-7-| strummed repeatedly
D-9-|
A---|
E---|

pre-verse

1st guitar

e-7777777777777777777777778888-8-8--|
B-8888888888888888888888888888-8-8--|
G-7777777777777777777777777777-7-7--|
D-9999999999999999999999999999------|
A-----------------------------------|
E-----------------------------------|

2nd guitar

e-7-7------7-------7----888-10-|
B-8---8----8--8----8--8--------|
G-7-----7--7----7--7-----------|
D------------------------------|
A------------------------------|
E------------------------------|


chorus

1st guitar & 2nd guitar

e-7-7-----7-7----8-8-8-8-8-8-|
B-8-8-----8-8----8-8-8-8-8-8-|
G-7-7-----7-7----7-7-7-7-7-7-|
D-9-9-----9-9----------------|
A----------------------------|
E----------------------------|


pre-verse

1st guitar

e-7777777777777777777777778888-8-8--|
B-8888888888888888888888888888-8-8--|
G-7777777777777777777777777777-7-7--|
D-9999999999999999999999999999------|
A-----------------------------------|
E-----------------------------------|

2nd guitar

e-7-7------7-------7----888-10-|
B-8---8----8--8----8--8--------|
G-7-----7--7----7--7-----------|
D------------------------------|
A------------------------------|
E------------------------------|


pre-chorus

1st guitar

e----------------------------------------|
B-8-8-8--8-8-8--8--8---8/10-10\8---8--8--|
G-7-7-7--7-7/9--9--9---9/11-11\9---9--9--|
D-9-9-9--9-9/10-10-10-10/12-12\10--10-10-|
A----------------------------------------|
E----------------------------------------|

2nd guitar

e-7-|
B-8-|
G-7-| strummed repeatedly
D-9-|
A---|
E---|


bridge

1st guitar

e-15------------------|
B---15-13-10h-12p-10--|
G------------------12-|
D---------------------|
A---------------------|
E---------------------|

2nd guitar

e-7777777777777777777777778888-8-8--|
B-8888888888888888888888888888-8-8--|
G-7777777777777777777777777777-7-7--|
D-9999999999999999999999999999------|
A-----------------------------------|
E-----------------------------------|


pre-verse

1st guitar

e-7777777777777777777777778888-8-8--|
B-8888888888888888888888888888-8-8--|
G-7777777777777777777777777777-7-7--|
D-9999999999999999999999999999------|
A-----------------------------------|
E-----------------------------------|

2nd guitar

e-7-7------7-------7----888-10-|
B-8---8----8--8----8--8--------|
G-7-----7--7----7--7-----------|
D------------------------------|
A------------------------------|
E------------------------------|


pre-chorus

1st guitar

e----------------------------------------|
B-8-8-8--8-8-8--8--8---8/10-10\8---8--8--|
G-7-7-7--7-7/9--9--9---9/11-11\9---9--9--|
D-9-9-9--9-9/10-10-10-10/12-12\10--10-10-|
A----------------------------------------|
E----------------------------------------|

2nd guitar

e-7-|
B-8-|
G-7-| strummed repeatedly
D-9-|
A---|
E---|


bridge

1st guitar

e-15------------------|
B---15-13-10h-12p-10--|
G------------------12-|
D---------------------|
A---------------------|
E---------------------|

2nd guitar

e-7777777777777777777777778888-8-8--|
B-8888888888888888888888888888-8-8--|
G-7777777777777777777777777777-7-7--|
D-9999999999999999999999999999------|
A-----------------------------------|
E-----------------------------------|

last chord

e-7b---7-|
B-8b---8-|
G-7b---7-|
D-9b---9-|
A--------|
E--------|


     there are some variations and pauses but no other chords are used

                             mint song. mint band
            
Submit corrections

comments powered by Disqus
↑ Back to top | The Courteeners Tabs for Cavorting. Lyrics for acoustic guitar and electric guitar. Tablatures and chords are parodies/interpretations of the original songs. You may use it for private study, scholarship, research or language learning purposes only