» » »

You Overdid It Doll Bass tabs (ver.1)

Artists:  A B C D E F G H I J K L M N O P Q R S T U V W X Y Z # 

You Overdid It Doll Bass tabs (ver.1)

The Courteeners
Rating:
0/5 (0 votes)

Tabs too difficult? Try these video lessons and learn fast.
                Band :: The Courteeners
Song :: You Overdid It Doll(Bass)

Tuning :: Standard EADG


Pre-Verse
G|---------------------|
D|---------------------|
A|---------------------|
E|-1-11-1-11-6-66-6-66-|

Verse
G|---------------------|
D|---------------------|
A|---------------------|
E|-1-11-1-11-6-66-6-66-|
x4

Chorus
G|----------------------------------------|
D|----------------------------------------|
A|-----------888-666-44444444-888-6-666---|
E|-4444-8888------------------------------|

G|----------------------------------------|
D|----------------------------------------|
A|-----------888-666-44444444-888-6-666---|
E|-4444-8888------------------------------|

G|----------------------|
D|----------------------|
A|-44444444-888-6-666---|
E|----------------------|

Pre-Verse

G|---------------------|
D|---------------------|
A|---------------------|
E|-1-11-1-11-6-66-6-66-|
x3

Verse
G|---------------------|
D|---------------------|
A|---------------------|
E|-1-11-1-11-6-66-6-66-|
x4

Chorus
G|----------------------------------------|
D|----------------------------------------|
A|-----------888-666-44444444-888-6-666---|
E|-4444-8888------------------------------|

G|----------------------------------------|
D|----------------------------------------|
A|-----------888-666-44444444-888-6-666---|
E|-4444-8888------------------------------|

G|----------------------|
D|----------------------|
A|-44444444-888-6-666---|
E|----------------------|

Pre-Guitar Solo + Solo
G|---------------------|
D|---------------------|
A|---------------------|
E|-1-11-1-11-6-66-6-66-|
x4

Chorus
G|----------------------------------------|
D|----------------------------------------|
A|-----------888-666-44444444-888-6-666---|
E|-4444-8888------------------------------|

G|----------------------|
D|----------------------|
A|-44444444-888-6-666---|
E|----------------------|
x2

Pre-Guitar Solo + Solo + Fade Out
G|---------------------|
D|---------------------|
A|---------------------|
E|-1-11-1-11-6-66-6-66-|
x4
            
Tabs too difficult? Try these video lessons and learn fast.




comments powered by Disqus
↑ Back to top | Tablatures and chords are parodies/interpretations of the original songs. You may use it for private study, scholarship, research or language learning purposes only