» » »

The Courteeners, Aftershow Tabs (ver.3)

Artists:  A B C D E F G H I J K L M N O P Q R S T U V W X Y Z # 

Aftershow Tabs (ver.3)

The Courteeners Tabs
 Rating:
3.7/5 (6 votes)
Aftershow lessons Tabs too difficult? Try these video lessons and learn fast
                |-----------------------------|
|-The Courteeners - Aftershow-|
|-----------------------------|
Guitar 1 - Daniel Conan Moores (lead)
Guitar 2 - Liam Fray (rhythm)


Intro

Guitar 1
e-----12------12--|----12------12--|----12------12--|----12------12--|
B---13--13--13--13|--13--13--13--12|--12--12--12--12|--12--12--12--12|
G-14------14------|14------14------|13------13------|13------13------|
D-----------------|----------------|----------------|----------------|
A-----------------|----------------|----------------|----------------|
E-----------------|----------------|----------------|----------------|

e-----12------12--|----12------12--|----12------12--|----12------12--|
B---13--13--13--13|--13--13--13--12|--12--12--12--12|--12--12--12--12|
G-14------14------|14------14------|13------13------|13------13------|
D-----------------|----------------|----------------|----------------|
A-----------------|----------------|----------------|----------------|
E-----------------|----------------|----------------|----------------|

e-----12------12--|----12------12--|-12-------------||
B---13--13--13--13|--13--13--13--12|-12-------------||
G-14------14------|14------14------|-13-- let ring--||
D-----------------|----------------|----------------||
A-----------------|----------------|----------------||
E-----------------|----------------|----------------||


Bridge

Both guitars
e-----------------|----------------|----------------|----------------||
B------(8x)-------|------(8x)------|------(8x)------|------(8x)------||
G-----------------|----------------|----------------|----------------||  x2
D-7-7-7-7-7-7-7-7-|7-7-7-7-7-7-7-7-|6-6-6-6-6-6-6-6-|1010101010101010||
A-7-7-7-7-7-7-7-7-|7-7-7-7-7-7-7-7-|6-6-6-6-6-6-6-6-|1010101010101010||
E-5-5-5-5-5-5-5-5-|5-5-5-5-5-5-5-5-|4-4-4-4-4-4-4-4-|8-8-8-8-8-8-8-8-||


	Verse

Guitar 1
e---------12------|----------------|---------12-----|----------------||
B-----13------13--|--------13131212|-----12------12-|----------------||
G-14--------------|14141414--------|-13-------------|1313131313131313||
D-----------------|----------------|----------------|----------------||
A-----------------|----------------|----------------|----------------||
E-----------------|----------------|----------------|----------------||

e---------12------|----------------|---------12-----|----------------||
B-----13------13--|--------13131212|-----12------12-|----------------||
G-14--------------|14141414--------|-13-------------|-9---12---------||
D-----------------|----------------|----------------|----------------||
A-----------------|----------------|----------------|----------------||
E-----------------|----------------|----------------|----------------||

Guitar 2
e-----------------|----------------|----------------|----------------|
B------(8x)-------|------(8x)------|------(8x)------|----------------|
G-----------------|----------------|----------------|----------------|
D-7-7-7-7-7-7-7-7-|7-7-7-7-7-7-7-7-|6-6-6-6-6-6-6-6-|6-6-6-----------|
A-7-7-7-7-7-7-7-7-|7-7-7-7-7-7-7-7-|6-6-6-6-6-6-6-6-|6-6-6-----------|
E-5-5-5-5-5-5-5-5-|5-5-5-5-5-5-5-5-|4-4-4-4-4-4-4-4-|4-4-4-----------|

e-----------------|----------------|----------------|----------------||
B------(8x)-------|------(8x)------|------(8x)------|----------------||
G-----------------|----------------|----------------|----------------||
D-7-7-7-7-7-7-7-7-|7-7-7-7-7-7-7-7-|6-6-6-6-6-6-6-6-|--2---5---------||
A-7-7-7-7-7-7-7-7-|7-7-7-7-7-7-7-7-|6-6-6-6-6-6-6-6-|--2---3---------||
E-5-5-5-5-5-5-5-5-|5-5-5-5-5-5-5-5-|4-4-4-4-4-4-4-4-|--0---3---------||


	Chorus

Guitar 1
e-----------------|----------------|----------------|----------------|
B-----------------|----------------|----------------|---8-8-8-8------|
G-----------------|--------7-7b-7--|----------------|-4--------------|
D-----------------|-10-7-10------10|----------------|----------------|
A-----------------|----------------|----------------|----------------|
E-----------------|----------------|----------------|----------------|

e-----------------|-x-x--x---x-x-x-|----------------|----------------||
B-----------------|-x-x--x---x-x-x-|----------------|---8-8-8-8------||
G-----------------|-x-x--x---x-x-x-|----------------|-4--------------||
D-----------------|-x-x--x---x-x-x-|----------------|----------------||
A-----------------|-x-x--x---x-x-x-|----------------|----------------||
E-----------------|-x-x--x---x-x-x-|----------------|----------------||

Guitar 2
e-----------------|----------------|----------------|----------------|
B-----------------|----------------|----------------|----------------|
G-----------------|----------------|----------------|----------------|
D-7---7---7---7---|----------------|6---6---6---6---|----------------|
A-7---7---7---7---|----------------|6---6---6---6---|----------------|
E-5---5---5---5---|----------------|4---4---4---4---|----------------|

e-----------------|----------------|----------------|----------------||
B-----------------|----------------|----------------|----------------||
G-----------------|----------------|----------------|----------------||
D-7---7---7---7---|----------------|6---6---6---6---|----------------||
A-7---7---7---7---|----------------|6---6---6---6---|----------------||
E-5---5---5---5---|----------------|4---4---4---4---|----------------||


Bridge

Both guitars
e-----------------|----------------|----------------|----------------||
B------(8x)-------|------(8x)------|------(8x)------|------(8x)------||
G-----------------|----------------|----------------|----------------||  x2
D-7-7-7-7-7-7-7-7-|7-7-7-7-7-7-7-7-|6-6-6-6-6-6-6-6-|1010101010101010||
A-7-7-7-7-7-7-7-7-|7-7-7-7-7-7-7-7-|6-6-6-6-6-6-6-6-|1010101010101010||
E-5-5-5-5-5-5-5-5-|5-5-5-5-5-5-5-5-|4-4-4-4-4-4-4-4-|8-8-8-8-8-8-8-8-||


Verse

Guitar 1
e---------12------|----------------|---------12-----|----------------|
B-----13------13--|--------13131212|-----12------12-|--------12121313|
G-14--------------|14141414--------|-13-------------|13131313--------|
D-----------------|----------------|----------------|----------------|
A-----------------|----------------|----------------|----------------|
E-----------------|----------------|----------------|----------------|

e---------12------|----------------|---------12-----|----------------||
B-----13------13--|--------13131212|-----12------12-|----------------||
G-14--------------|14141414--------|-13-------------|-9---12---------||
D-----------------|----------------|----------------|----------------||
A-----------------|----------------|----------------|----------------||
E-----------------|----------------|----------------|----------------||

Guitar 2
e-----------------|----------------|----------------|----------------|
B------(8x)-------|------(8x)------|------(8x)------|------(8x)------|
G-----------------|----------------|----------------|----------------|
D-7-7-7-7-7-7-7-7-|7-7-7-7-7-7-7-7-|6-6-6-6-6-6-6-6-|6-6-6-6-6-6-6-6-|
A-7-7-7-7-7-7-7-7-|7-7-7-7-7-7-7-7-|6-6-6-6-6-6-6-6-|6-6-6-6-6-6-6-6-|
E-5-5-5-5-5-5-5-5-|5-5-5-5-5-5-5-5-|4-4-4-4-4-4-4-4-|4-4-4-4-4-4-4-4-|

e-----------------|----------------|----------------|----------------||
B------(8x)-------|------(8x)------|------(8x)------|----------------||
G-----------------|----------------|----------------|----------------||
D-7-7-7-7-7-7-7-7-|7-7-7-7-7-7-7-7-|6-6-6-6-6-6-6-6-|--2---5---------||
A-7-7-7-7-7-7-7-7-|7-7-7-7-7-7-7-7-|6-6-6-6-6-6-6-6-|--2---3---------||
E-5-5-5-5-5-5-5-5-|5-5-5-5-5-5-5-5-|4-4-4-4-4-4-4-4-|--0---3---------||


Chorus

Guitar 1
e-----------------|----------------|----------------|----------------|
B-----------------|----------------|----------------|---8-8-8-8------|
G-----------------|--------7-7b-7--|----------------|-4--------------|
D-----------------|-10-7-10------10|----------------|----------------|
A-----------------|----------------|----------------|----------------|
E-----------------|----------------|----------------|----------------|

e-----------------|-x-x--x---x-x-x-|----------------|----------------||
B-----------------|-x-x--x---x-x-x-|----------------|---8-8-8-8------||
G-----------------|-x-x--x---x-x-x-|----------------|-4--------------||
D-----------------|-x-x--x---x-x-x-|----------------|----------------||
A-----------------|-x-x--x---x-x-x-|----------------|----------------||
E-----------------|-x-x--x---x-x-x-|----------------|----------------||

Guitar 2
e-----------------|----------------|----------------|----------------|
B-----------------|----------------|----------------|----------------|
G-----------------|----------------|----------------|----------------|
D-7---7---7---7---|----------------|6---6---6---6---|----------------|
A-7---7---7---7---|----------------|6---6---6---6---|----------------|
E-5---5---5---5---|----------------|4---4---4---4---|----------------|

e-----------------|----------------|----------------|----------------||
B-----------------|----------------|----------------|----------------||
G-----------------|----------------|----------------|----------------||
D-7---7---7---7---|----------------|6---6---6---6---|----------------||
A-7---7---7---7---|----------------|6---6---6---6---|----------------||
E-5---5---5---5---|----------------|4---4---4---4---|----------------||


Bridge

Both guitars
e-----------------|----------------|----------------|----------------||
B------(8x)-------|------(8x)------|------(8x)------|------(8x)------||
G-----------------|----------------|----------------|----------------||  x2
D-7-7-7-7-7-7-7-7-|7-7-7-7-7-7-7-7-|6-6-6-6-6-6-6-6-|1010101010101010||
A-7-7-7-7-7-7-7-7-|7-7-7-7-7-7-7-7-|6-6-6-6-6-6-6-6-|1010101010101010||
E-5-5-5-5-5-5-5-5-|5-5-5-5-5-5-5-5-|4-4-4-4-4-4-4-4-|8-8-8-8-8-8-8-8-||


Ending

Guitar 1
e-----------------|----------------|----------------|----------------||
B-----------------|----------------|----------------|---8-8-8-8------||
G-----------------|--------7-7b-7--|----------------|-4--------------||
D-----------------|-10-7-10------10|----------------|-------------7--||
A-----------------|----------------|----------------|-------------7--||
E-----------------|----------------|----------------|-------------5--||

Guitar 2
e-----------------|----------------|----------------|----------------||
B-----------------|----------------|----------------|----------------||
G-----------------|----------------|----------------|----------------||
D-7---7---7---7---|----------------|6---6---6---6---|-------------7--||
A-7---7---7---7---|----------------|6---6---6---6---|-------------7--||
E-5---5---5---5---|----------------|4---4---4---4---|-------------5--||


Well that’s it from me,
If you have any problems/corrections please leave a comment…

wiLL
            
Submit corrections

comments powered by Disqus
↑ Back to top | The Courteeners Tabs for Aftershow. Lyrics for acoustic guitar and electric guitar. Tablatures and chords are parodies/interpretations of the original songs. You may use it for private study, scholarship, research or language learning purposes only