» » »

The Courteeners, Aftershow Tabs (ver.2)

Artists:  A B C D E F G H I J K L M N O P Q R S T U V W X Y Z # 

Aftershow Tabs (ver.2)

The Courteeners Tabs
Rating:
5/5 (2 votes)
Aftershow lessons Tabs too difficult? Try these video lessons and learn fast
                
tuning: stanadard EADGBe

intro

e-------12----------12----------12----------12----------12-------|
B----13----13----13----13----13----13----13----12----12----12----|
G-14----------14----------14----------14----------13----------13-|
D----------------------------------------------------------------|
A----------------------------------------------------------------|
E----------------------------------------------------------------|


e----12----------12----------12----|
B-12----12----12----12----12----12-|
G----------13----------13----------|  x3
D----------------------------------|
A----------------------------------|
E----------------------------------|


e--12r--|
B--12r--|
G--13r--|
D-------|
A-------|
E-------|

verse

1st guitar

e-5555555555555555-|-4444444444444444-|
B-5555555555555555-|-5555555555555555-|
G-5555555555555555-|-4444444444444444-| x2
D-7777777777777777-|-6666666666666666-|
A------------------|------------------|
E------------------|------------------|


e-5555555555555555-|-44444444--4--4--4-|
B-5555555555555555-|-55555555--5--5--5-|
G-5555555555555555-|-44444444--4--4--4-|
D-7777777777777777-|-66666666--6--6--6-|
A------------------|-------------------|
E------------------|-------------------|


e-5555555555555555-|-44444444-----------------|
B-5555555555555555-|-55555555-----------------|
G-5555555555555555-|-44444444--9--12-12-12-12-|
D-7777777777777777-|-66666666-----------------|
A------------------|-----------7--10-10-10-10-|
E------------------|--------------------------|

2nd guitar

e-------12----------------------------12---------------|
B----13----13-------13-13-12-12----12----12------------|
G-14----------14-14-------------13----------13--13--13-|
D------------------------------------------------------|
A------------------------------------------------------|
E------------------------------------------------------|

e-------12----------------------------12----|
B----13----13-------13-13-12-12----12----12-|
G-14----------14-14-------------13----------|
D-------------------------------------------|
A-------------------------------------------|
E-------------------------------------------|

chorus/instrumental

e-5--5--5--5-------------|-4--4--4--4-----------------|
B-5--5--5--5-------------|-5--5--5--5-----------------|
G-5--5--5--5---5--5-7-7b-|-4--4--4--4--9--12-12-12-12-|
D-7--7--7--7----7--------|-6--6--6--6-----------------|
A------------------------|-------------7--10-10-10-10-|
E------------------------|----------------------------|

e-5--5--5--5----|-4--4--4--4-----------------|
B-5--5--5--5----|-5--5--5--5-----------------|
G-5--5--5--5----|-4--4--4--4--9--12-12-12-12-|
D-7--7--7--7----|-6--6--6--6-----------------|
A---------------|-------------7--10-10-10-10-|
E---------------|----------------------------|

last chord

e--5--|
B--5--|
G--5--|
D--7--|
A-----|
E-----|


order

intro

verse

chorus

verse

chorus

last chord

r=let ring
b=bend

its probably about 13.7% accurate but it sounds fair mint
            

comments powered by Disqus
↑ Back to top | The Courteeners Tabs for Aftershow. Lyrics for acoustic guitar and electric guitar. Tablatures and chords are parodies/interpretations of the original songs. You may use it for private study, scholarship, research or language learning purposes only