» » »

Aftershow Tabs (ver.1)

Artists:  A B C D E F G H I J K L M N O P Q R S T U V W X Y Z # 

Aftershow Tabs (ver.1)

The Courteeners
Rating:
5/5 (3 votes)

Hard to play? Try these video lessons and learn fast.
                (Intro)
                        The Courteeners - Aftershow (Intro)


e|---------12----------12----------12----------12----|
B|------13----13----13----13----13----13----13----13-|
G|---14----------14----------14----------14----------|
D|---------------------------------------------------|
A|---------------------------------------------------|
E|---------------------------------------------------|

e|---------12----------12----------12----------12----|
B|------12----12----12----12----12----12----12----12-|
G|---13----------13----------13----------13----------|
D|---------------------------------------------------|
A|---------------------------------------------------|
E|---------------------------------------------------|

e|---------12----------12----------12----------12----|
B|------13----13----13----13----13----13----13----13-|
G|---14----------14----------14----------14----------|
D|---------------------------------------------------|
A|---------------------------------------------------|
E|---------------------------------------------------|

e|---------12----------12----------12----------12----|
B|------12----12----12----12----12----12----12----12-|
G|---13----------13----------13----------13----------|
D|---------------------------------------------------|
A|---------------------------------------------------|
E|---------------------------------------------------|

e|---------12----------12----------12----------12----|
B|------13----13----13----13----13----13----13----13-|
G|---14----------14----------14----------14----------|
D|---------------------------------------------------|
A|---------------------------------------------------|
E|---------------------------------------------------|

e|------|
B|---12-|
G|---13-|
D|------|
A|------|
E|------|


im pretty sure thats 100% correct. after that its somethin like a5 n g#5. not sure yet though!

please rate n comment! xx
            
Hard to play? Try these video lessons and learn fast. | Correct




comments powered by Disqus
↑ Back to top | Tablatures and chords are parodies/interpretations of the original songs. You may use it for private study, scholarship, research or language learning purposes only