» » »

Love Song Tabs (ver.3)

Artists:  A B C D E F G H I J K L M N O P Q R S T U V W X Y Z # 

Love Song Tabs (ver.3)

Tesla
Rating:
0/5 (0 votes)

Tabs too difficult? Try these video lessons and learn fast.
                (Intro)
This intro is finger picked.  You probably need to download to get the rythym.

h= Hammer on
p= Pull off
/= Slide

        D(sus4)          A(sus4)        B minor           G
e--2---3--2h3p2p0-------------0----------------------------------
B---------------------2---3-----------3---------3-------0--2--3--
G--------------------------------------------4-------------------
D--0--------------------------------------4----------------------   Repeats 3x
A---------------------0---------------2--------------------------
E-------------------------------------------------------3--------

       D(sus4)         A(sus4)                    G            A
e--2--3--2h3p2p0-----------0---------------------------------------------
B--------------------2--3-------3----2----5----3------3------2------2----
G---------------------------------------------------0---0---------2---2-- 
D--0----------------------------------------------0-------------2--------
A--------------------0----------2----0-----------------------0-----------
E-----------------------------------------4----3-------------------------
 
            D/F#                 G          D/F#         E m       D/F#
e-------------------------------------------------------------------------
B---3-------------3----3-------0--2--3--------2--3----3/5--3--2------2-3--
G-------2h4p2p0------2---2-----------------2-----------------------2------
D---4-------------4-------------------------------------------------------
A-------------------------------------------------------------------------
E------------------------------3-----------2----------0------------2------

     G          D/F#        E m          
e--------------------------------------------
B--0---2--3-------2--3----3/5--3--2------2---
G--------------2-----------------------------
D--------------------------------------------
A----------------------------------------0---
E--3-----------2----------0------------------




---------Bogolin--------(the CC)
            
Tabs too difficult? Try these video lessons and learn fast.


comments powered by Disqus
↑ Back to top | Tablatures and chords are parodies/interpretations of the original songs. You may use it for private study, scholarship, research or language learning purposes only