» » »

What You Give Tabs (ver.1)

Artists:  A B C D E F G H I J K L M N O P Q R S T U V W X Y Z # 

What You Give Tabs (ver.1)

Tesla
Rating:
0/5 (0 votes)

Hard to play? Try these video lessons and learn fast.
                Mime-Version: 1.0
Content-Transfer-Encoding: 7BIT

                       What You Give by Tesla
Notation
   b=bend 1 step * bb=bend 1 1/2 steps * bd=bend and bring it back    
   bh=bend and hold * sd=slide down to * su=slide up to               
   h=hammer on * p= pull off * sb=bend note full step and then strike it
 Rhy 1
E|-----------------|-----------------------|-----------0---------------|
B|-----------------|-----------------------|-------3-----3-------------|
G|-------0-------0-|-3p2---0--2-0--------0-|--2su4---4-----4s2-0-------|
D|---0h2-----0h2---|-----------------0h2---|---------------------2-0---|
A|-----------------|-----------------------|---------------------------|
E|-3-------3-------|-----1---------1-------|0------------------------1-|
   G                F                       Em7

                    end 1
E|------------------------|-Here is------17--------15--------------------|
B|------------------------|-the fill--------15sd13----13sd12-------------|
G|-3p2----0--2-0--------0-|-from the-------------------------b14---------|
D|------------------0h2---|-1st phrase-------------------------------12--|
A|------------------------|----------------------------------------------|
E|-----1----------1-------|----------------------------------------------|
  F

 Repeat this phrase throughout the 1st, 2nd, & 3rd Verse. The backing
 chord progression for the solo where he says "play it pretty for the world"
 is also the same phrase. Here is the chorus.

| G   /   D     /  | C   /     /     /  |  G    /    D   / | C    /    /    |
   I feel so...     only one  to ever ...    I love you...  that I, I think
         
E|-0--0-----0-3p0-----1p0--0-----|-0---0----0-0---------------0------|
B|-1--1---1-------1---1----1-----|-1---1----1-1---------------1------|
G|-2--2-------------2-2----0-----|-0---0----0-0------0--2p0---2------|
D|-3--3---------------3----2-----|-2---2----2-2--0h2----------3------|
A|-------------------------3-----|-3---3----3-3----------------------|
E|-------------------------------|-----------------------------------|
   Crazy,     outta my head  Goin crazy       outta my head


E|--0-0--0--1p0--3p0---0-0------0---------|-0---0-------0---0--------|
B|--1-1--1--1----1---1---1------1---------|-1---1-------1---1--------|
G|--2-2--2--2----2-------2--0---0---------|-0---0-------0---0-------0|
D|--3-3--3--3----3-------3------2---------|-2---2-------2---2--0h2---|
A|------------------------------3---------|-3---3-------3---3--------|
E|----------------------------------------|--------------------------|
     Can't think about nothin' but your good good love  and what you give

Well that is pretty much the whole song except for the solo and a few fills
 I will translate the solo and outro but not all the fills for most of them
were probably improvised and also it would take too much time.
 Solo         b=bend 1 step   bb=bend 1 1/2 steps bd=bend and bring it back    
              bh=bend and hold  sd=slide down to  su=slide up to               
              h=hammer on p= pull off sb=bend note full step and then strike it

E|----------15|-b17--bb17--bd17-15-----15-17--bh17-|17-17--15--b17--15-------|
B|----15h17---|--------------------17--------------|-------------------------|
G|------------|------------------------------------|-------------------------|
D|------------|------------------------------------|-------------------------|
A|------------|------------------------------------|-------------------------|
E|------------|------------------------------------|-------------------------|
  play it pretty...

E|--------------|-----------15-------15-|--------------------12-------------|
B|------12--15--|b15---b15-----b15--b15-|-b15-15-13-b15-13------12-15-12----|
G|12-14---------|-----------------------|-------------------------------bd14|
D|--------------|-----------------------|-----------------------------------|
A|--------------|-----------------------|-----------------------------------|
E|--------------|-----------------------|-----------------------------------|
           
E|---------------------|--------------------------------------|15-----------|
B|---------------------|--------------------------------------|---15--------|
G|12---b14sd-----------|--------------------------12--12--bh14|------14--12-|
D|---------------------|-----------12----12-12h14-------------|-------------|
A|------------------10-|-10-12su14----14----------------------|-------------|
E|------------10h12----|--------------------------------------|-------------|

E|-----------------------------|-------------15h17-b17--bb17--sb17--15----15|  
B|------------15---------------|-------15h17---------------------------17---|  
G|----12-bh14----14---12-14-12-|-14h16--------------------------------------|  
D|14---------------------------|--------------------------------------------|  
A|-----------------------------|--------------------------------------------|  
E|-----------------------------|--------------------------------------------|  

  outro
E|-------0-3p0-------------|---------------------------|  
B|-----1-------1-----------|---------------------------|  
G|---2-----------2---2---2-|------0--------0------0----|  
D|-3---------------3---3---|----2-----0h2----0h2-------|  
A|-------------------------|--3-----3----------------3-|  
E|-------------------------|---------------------------|

Where there it is and that is the accurate version of What You Give.
If anyone wants any particular fills that I did not include then e-mail
me specifing which one you want. I know the whole song and all its parts
but there is not enough time for all of the background fills.
Enjoy!!
Chuck Dolese
            
Hard to play? Try these video lessons and learn fast. | Correct




comments powered by Disqus
↑ Back to top | Tablatures and chords are parodies/interpretations of the original songs. You may use it for private study, scholarship, research or language learning purposes only