>
 >
Breakin' Free

Breakin' Free Guitar Tabs

Tesla - Breakin' Free chords, tabs, tablatures, lyrics

Guitar lessons | Add/correct | Request | Top 50 tabs Artists:  A B C D E F G H I J K L M N O P Q R S T U V W X Y Z 0-9

Breakin' Free Guitar Tabs – Tesla

CD, Sheet music, Poster

Do you like Breakin' Free? Share with your friends now
Tabs


----------------------------------------------------
Tune: Drop C#

intro
|-----------------------------------------------------|
|-----------------------------------------------------|
|-7-----7-----7-----7-----7---7-------(play x2)-------|
|---0-0---0-0---0-0---0-0---0---0---------------------|
|-----------------------------------------------------|
|-----------------------------------------------------|

Riff a)
|-----------------------------------------------------|
|-----------------------------------------------------|
|-10-----9-----5-----7----------------(play x2)-------|
|----0-0---0-0---0-0---0-0-5-0-7-0--------------------|
|-----------------------------------------------------|
|-----------------------------------------------------|

|-----------------------------------------------------|
|-----------------------------------------------------|
|-------7-----------7---------7-----------------------|
|-8-0-0---0-0-8-0-0---0-0-8-0---0---------------------|
|-----------------------------------------------------|
|-----------------------------------------------------|

|-----------------------------------------------------|
|-----------------------------------------------------|
|--------9------------9----------9--------------------|
|-10-0-0---0-0-10-0-0---0-0-10-0---0------------------|
|-----------------------------------------------------|
|-----------------------------------------------------|

 riff b)
|----------------------------------|
|----------------------------------|
|----------------------------------|
|-0---------------8-------10-------|
|-0---------------8-------10-------|
|-0---------------8-------10-------|


Verse
Play riff a & b (x2)


Pre Chorous
|--------------------------------------------------------------|
|--------------------------------------------------------------|
|-11----11-11/12-11-------11/12-14-----15\14-12-11-------------|
|--------------------------------------------------------------|
|-9-----9---9/10-9---------9/10-12-----13\12-10-9--------------|
|--------------------------------------------------------------|


Chorous
|------------------------------------------------------|
|------------------------------------------------------|
|------------------------------------------------------|
|-0--3--10----10-10-10--0--3--8-----8-8-8----(play x4)-|
|-0--3--10----10-10-10--0--3--8-----8-8-8--------------|
|-0--3--10----10-10-10--0--3--8-----8-8-8--------------|

 Gtr. 1 on 2nd time
|---------------------------------------------------------|
|---------------------------------------------------------|
|---------------------------------14\12-12-12\10-10-7-----|
|-0--3--10----10-10-10--0--3--8---------------------------|
|-0--3--10----10-10-10--0--3--8---12\10-10-10\8--8--5-----|
|-0--3--10----10-10-10--0--3--8---------------------------|


Bridge
 Gtr. 1
|---------------------3-----3p0----------------------|
|-----1---0h1-------1-----1--------------------------|
|---2---2-----2---2-----2-------2------(play x3)-----|
|-2-------------2------------------------------------|
|----------------------------------------------------|
|----------------------------------------------------|

|---------------------3---5-3p0----------------------|
|-----1---0h1-------1--------------------------------|
|---2---2-----2---2-----2-------2--------------------|
|-2-------------2------------------------------------|
|----------------------------------------------------|
|----------------------------------------------------|

 Gtr. 2
|---------------------------------------------------------|
|---------------------------------------------------------|
|-2---------------2---------------------------------------|
|-2---------------2-------2-2-2-2-2-2-2-2-2-2-2-2-2-2-2-2-|
|-0---------------0-------0-0-0-0-0-0-0-0-0-0-0-0-0-0-0-0-|
|---------------------------------------------------------|

|--------------------(    play x4     )----------------------|
|------------------------------------------------------------|
|-2-------2---------4-----4-------5-------5---------4-5-4-2--|
|-2-------2---------4-----4-------5-------5---------4-5-4-2--|
|---0-0-0---0-0-0-2---2-2-----------3-3-3---3-3-3-2----------|
|------------------------------------------------------------|


Solo (play with chorous)
|-15fbr----p13-15------13-15-15fbr-p13-15-------------|
|-----------------------------------------------------|
|-----------------------------------------------------|
|-----------------------------------------------------|
|-----------------------------------------------------|
|-----------------------------------------------------|

|-13-15-13-12-13-12----------------------------------|
|-------------------13h15-----15fbr-p13--------------|
|---------------------------------------14-----------|
|----------------------------------------------------|
|----------------------------------------------------|
|----------------------------------------------------|

|-----13-12---13-15-----15fbr-p13-15----17b(1.5)-15-13--------------|
|-15---------------------------------------------------1513-15-15b-|
|-------------------------------------------------------------------|
|-------------------------------------------------------------------|
|-------------------------------------------------------------------|
|-------------------------------------------------------------------|

|-------13-------12-------10-------12-------13-------|
|----10-------10-------10-------10-------10----------|
|-12-------12-------12-------12-------12-------------|
|----------------------------------------------------|
|----------------------------------------------------|
|----------------------------------------------------|

|-------13-------12-------12-------10----------------|
|----10-------10-------8--------8--------------------|
|-12-------12-------10-------10----------------------|
|----------------------------------------------------|
|----------------------------------------------------|
|----------------------------------------------------|

|-17p13----17p13----17p13----20p17----20p17----20p17----20fb---|
|-------15-------15-------17-------17-------17-------17--------|
|--------------------------------------------------------------|
|--------------------------------------------------------------|
|--------------------------------------------------------------|
|--------------------------------------------------------------|

|-22fb---22fb---24hb------20-22-22-------------------|
|----------------------------------------------------|
|----------------------------------------------------|
|----------------------------------------------------|
|----------------------------------------------------|
|----------------------------------------------------|

Outro Solo
|-15fbr---p13-15---------15fbr---p13-13--------------|
|----------------------------------------------------|
|----------------------------------------------------|
|----------------------------------------------------|
|----------------------------------------------------|
|----------------------------------------------------|

|----13-12------------------------13-12--------------------|
|-15-------13---15-15b(1.5)----15-------15-15fb--13--------|
|----------------------------------------------------14----|
|----------------------------------------------------------|
|----------------------------------------------------------|
|----------------------------------------------------------|

|-----------13fb--------15-13------------------------------|
|--------15----------15-------15-15-13----------13---------|
|-12h14--------------------------------14-12-14----12------|
|----------------------------------------------------------|
|----------------------------------------------------------|
|----------------------------------------------------------|

|-----------------------------------13--15-----------------|
|------15-13--------------------------------15-------------|
|-14---------12fbr-p10-12----------------------------------|
|----------------------------------------------------------|
|----------------------------------------------------------|
|----------------------------------------------------------|





Comments


Popular Tesla tabs & chords
Signs Bass Tabs
Don't De-Rock Me Tabs
Got No Glory Tabs
Hang Tough 1 Tabs
Love Song Tabs
Mighty Mouse Tabs
One Day At A Time Tabs
Paradise Tabs
Signs Tabs
The Game Tabs


Song lyrics



↑ Back to top | Tablatures and chords are parodies/interpretations of the original songs. You may use it for private study, scholarship, research or language learning purposes only
© 2014 AZChords.com Contact us | Privacy policy | DMCA | Add/correct tabs | Request tabs | Top 50 tabs