» » »

Tesla, The Way It Is Tabs (ver.1)

Artists:  A B C D E F G H I J K L M N O P Q R S T U V W X Y Z # 

The Way It Is Tabs (ver.1)

Tesla Tabs
Rating:
0/5 (0 votes)
The Way It Is lessons Tabs too difficult? Try these video lessons and learn fast
                Intro


Guitar 1

|---------|
|---------|
|---------|
|-----0---|
|--0------|
|---------|<--- repeat

|----------------------------------------------------------------------|
|--15-15-15-13-13-13-12-12-12-10-10-10-/9-7-8-10-12-10------2-3-5-5-3--|
|---------------------------------------------------------3------------|
|----------------------------------------------------------------------|
|----------------------------------------------------------------------|
|----------------------------------------------------------------------|

Guitar 2 

D	      F		 G
|--2-2-2-2-2--1-1-1-1-1--3-3-3-3-3-------|
|--3-3-3-3-3--1-1-1-1-1--0-0-0-0-0-------|
|--2-2-2-2-3--2-2-2-2-2--0-0-0-0-0-------|
|--0-0-0-0-0--3-3-3-3-3--0-0-0-0-0-------|
|----------------------------------------|
|----------------------------------------|


Verse


Guitar 1 

|--15-14-------------------------------------------------|
|--------15----------------------------------------------|
|-----------14-------------------------------------------|
|--------------------------------------------------------|
|--------------------------------------------------------|
|--------------------------------------------------------|

Guitar 2


D	      F		 G
|--2-2-2-2-2--1-1-1-1-1--3-3-3-3-3-------|
|--3-3-3-3-3--1-1-1-1-1--0-0-0-0-0-------|
|--2-2-2-2-3--2-2-2-2-2--0-0-0-0-0-------|
|--0-0-0-0-0--3-3-3-3-3--0-0-0-0-0-------|
|----------------------------------------|
|----------------------------------------|


Chorus (not sure)


Guitars 1 & 2 

|--------------------------------------------------------|
|--------------------------------------------------------|
|--7----5-----4-------------------7----------------------|
|--7-%--5--%--4-%--5----7----5----7-%--------------------|
|--5----3-----2----5-%--7-%--5-%--5----------------------|
|------------------3----5----3---------------------------|


Solo


Guitar 1 

|--------7-5--------------------------------------------------|--------------------5^----5--------------------------|
|------------8-7-6-----------10-7-3---------------------------|--------7^------5-6---------6-8^-8-10-10-8-6---------|
|----6-7-----------10-10-9-8----------6-7--5-3-2--------------|----6-7----7--6------------------------------7--5-6-7|
|--7--------------------------------7------------5-3-2--2-----|--7--------------------------------------------------|
|---------------------------------------------------------5---|-----------------------------------------------------|
|-------------------------------------------------------------|-----------------------------------------------------|

|--------10-10-------10-10--------10-13-10----10-----------------------------------------10-10---|
|--10-13-------10-13-------10-13-----------13----10-13-10---8-8-7-6-8--8-8-10------10-13---------|
|-----------------------------------------------------------------------------7------------------|
|------------------------------------------------------------------------------------------------|
|------------------------------------------------------------------------------------------------|
|------------------------------------------------------------------------------------------------|

Guitar 2 

D	      F		 G
|--2-2-2-2-2--1-1-1-1-1--3-3-3-3-3-------|
|--3-3-3-3-3--1-1-1-1-1--0-0-0-0-0-------|
|--2-2-2-2-3--2-2-2-2-2--0-0-0-0-0-------|
|--0-0-0-0-0--3-3-3-3-3--0-0-0-0-0-------|
|----------------------------------------|
|----------------------------------------|



This is my first tab so it might not be 100% 
            

comments powered by Disqus
↑ Back to top | Tesla Tabs for The Way It Is. Lyrics for acoustic guitar and electric guitar. Tablatures and chords are parodies/interpretations of the original songs. You may use it for private study, scholarship, research or language learning purposes only