>
 >
Love Song 2

Love Song 2 Bass Tabs

Tesla - Love Song 2 chords, tabs, tablatures, lyrics

Guitar lessons | Add/correct | Request | Top 50 tabs Artists:  A B C D E F G H I J K L M N O P Q R S T U V W X Y Z 0-9

Love Song 2 Bass Tabs – Tesla

CD, Sheet music, Poster

Do you like Love Song 2? Share with your friends now
Bass TabsBass Tabs v2ChordsTabsTabs v2Ukulele
-----------------------------------------------------------------------------
                                  
                         Love Song - Tesla (BASS)
            

-----------------------------------------------------------------------------

Tuning: standard tuning

=============================================================================

Bass

Starts after solo at about 1:32

                                          H.           Q      
G||-------|-------|-------|-------|-------|---------------------|
D||-------|-------|-------|-------|-------|---------------------|
A||-------|-------|-------|-------|-------|---------------------|
E||-------|-------|-------|-------|-------|---------------7\----|


  H.           E  E     H        Q     E  E     H.           E  E   
---------------------|-----------------------|---------------------|
---------------------|--------------------9--|---------------------|
------------------2--|--L--------2/----7-----|------------------2--|
--0------------L-----|-----------------------|--0------------L-----|


  Q.     H        E      H          E  E  E   E     H.           E  E    
---------------------|-----------------7---------|----------------------|
---------------------|--/7--------7g9-----9\--5--|--5------------5--7\--|
--L------0--------L--|---------------------------|----------------------|
---------------------|---------------------------|----------------------|


  H        E  E  E  E     H.           Q        H.           E  E   
-----------------------|---------------------|---------------------|
-----------------------|---------------------|---------------------|
--2--------2-----2--5--|--L------------------|------------------2--|
-----------------------|---------------7\----|--0------------L-----|


  H        Q     E  E     H.           E  E     Q.     H        E   
-----------------------|---------------------|---------------------|
-----------------9-----|---------------------|---------------------|
--L--------2/-------7--|------------------2--|--L------0--------L--|
-----------------------|--0------------L-----|---------------------|


   H          E  E  E   E     H.           E  E      H.           E  E   
-----------------7---------|----------------------|---------------------|
--/7--------7g9-----9\--5--|--L------------5--7\--|------------------0--|
---------------------------|----------------------|--2------------------|
---------------------------|----------------------|---------------7-----|


  W                   W                    E   E   E   E   Q     Q      
-------------------|-------------------|--16--14--12--11---L-----------|
--L----------------|--L----------------|---0---0---0---0---L-----------|
-------------------|-------------------|-------------------------------|
-------------------|-------------------|------------------------15\----|


  E  E  Q    Q.     E     E  E  Q    Q    Q       E  E  Q    Q.     E   
-----------------------|-----------------------|-----------------------|
--------5----4---------|--------5----7---------|--------5----4---------|
--------------------5--|------------------5----|--------------------5--|
--3--3-----------------|--3--3-----------------|--3--3-----------------|


  E  E  Q    Q    Q       H        E  E  E  E     H        E  E  Q      
-----------------------|-----------------------|-----------------------|
--------5----7---------|-----------------------|-----------------------|
------------------5----|-----------------5-----|--3--------3--3--2/----|
--3--3-----------------|--0--------L--0--------|-----------------------|


  H        E  E  E  E     H        E  E  E  E     E  E  Q    Q.     E   
-----------------------|-----------------------|-----------------------|
-----------------------|-----------------------|--------5----4---------|
--5--------L-----5-----|--5--------L-----5-----|--------------------5--|
--------------5-----5--|--------------5-----5--|--3--3-----------------|


  E  E  Q    Q    Q       E  E  Q    Q.     E     E  E  Q    Q    Q     
-----------------------|-----------------------|-----------------------|
--------5----7---------|--------5----4---------|--------5----7---------|
------------------5----|--------------------5--|------------------5----|
--3--3-----------------|--3--3-----------------|--3--3-----------------|


  H        E  E  E  E     H        E  E  Q        H        E  E  E  E   
-----------------------|-----------------------|-----------------------|
-----------------------|-----------------------|-----------------------|
-----------------5-----|--3--------3--3--2/----|--5--------L-----5-----|
--0--------L--0--------|-----------------------|--------------5-----5--|


  H        E  E  E  E     H        E  E  E  E     H        E  E  E  E   
-----------------------|-----------------------|-----------------------|
-----------------------|-----------------------|-----------------------|
--5--------L-----5-----|--------------------2--|--L--------L-----2--5--|
--------------5-----5--|--0--------L--0--3-----|--------------0--------|


  H        E  E  E  E     Q.     H        E     E  Q.       E  E  E   E   
-----------------------|---------------------|-----------------7---------|
-----------------------|---------------------|--7--7------7g9-----9\--5--|
--------------------2--|--L------0--------L--|---------------------------|
--0--------L--0--3-----|---------------------|---------------------------|


  H.           E  E      H        E  E  E  E     W                 
----------------------|-----------------------|-------------------|
--L------------5--7\--|-----------------------|-------------------|
----------------------|--2--------L--2--3--5--|--L----------------|
----------------------|-----------------------|-------------------|


  H        E  E  E  E     H        E  E  E  E     H        E  E  E  E   
-----------------------|-----------------------|-----------------------|
-----------------------|-----------------------|-----------------------|
--------------------2--|--L--------L-----2--5--|--------------------2--|
--0--------L--0--3-----|--------------0--------|--0--------L--0--3-----|


  Q.     H        E     H        E  E  E   E     H.           E  E    
---------------------|--------------7---------|----------------------|
---------------------|--7--------9-----9\--5--|--5------------5--7\--|
--L------0--------L--|------------------------|----------------------|
---------------------|------------------------|----------------------|


  H        E  E  E  E     W                   W                 
-----------------------|-------------------|-------------------|
-----------------------|-------------------|-------------------|
--2--------L--2--3--5--|--L----------------|--L----------------|
-----------------------|-------------------|-------------------|


  E  E  Q    E  E  E  E     E  E  E  E  E  E  E  E     Q    Q    E  Q    E   
-------------------------|--------------------------|-----------------------|
--------5----------------|--------------------------|------------2--0-------|
----------------------5--|--L--5--5--0--5--0--3--5--|--------------------3--|
--3--3-------3--2--0-----|--------------------------|--0----0---------------|


  Q    E  S S S S S S S S E     E  E  Q    E  E  E  E   
-----------------------------|-------------------------|
-----------------------------|--------5----------------|
--L-------0-2-3-3-3-3-3-1----|----------------------5--|
-------3------------------3--|--3--3-------3--2--0-----|


  E  E  E  E  E  E  E  E     Q    Q    E  Q    E     E  E  E  E  E  E  E  E   
--------------------------|-----------------------|--------------------------|
--------------------------|------------2--0-------|--------------------------|
--L--5--5--0--5--0--3--5--|--------------------3--|--L--3--3--2--3--2--3--5--|
--------------------------|--0----0---------------|--------------------------|


  E  E  Q    E  E  E  E     E  E  E  E  E  E  E  E     Q    Q    E  Q    E   
-------------------------|--------------------------|-----------------------|
--------5----------------|--------------------------|--2----2----2--0-------|
----------------------5--|--L--5--5--0--5--0--3--5--|--------------------3--|
--3--3-------3--2--0-----|--------------------------|-----------------------|


  E  E  E  S S E  E  E  E     E  E  Q    E  E  E  E   
---------------------------|-------------------------|
---------------------------|--------5----------------|
--L--3--3--3-3-3--2--3--5--|----------------------5--|
---------------------------|--3--3-------3--2--0-----|


  E  E  E  E  E  E  E  E     Q    Q    E  Q    E     W                 
--------------------------|-----------------------|-------------------|
--------------------------|------------2--0-------|-------------------|
--L--5--5--0--5--0--3--5--|--------------------3--|--L----------------|
--------------------------|--0----0---------------|-------------------|


  W                                                                  
-------------------|-------|-------|-------|-------|-------|-------||
-------------------|-------|-------|-------|-------|-------|-------||
--L----------------|-------|-------|-------|-------|-------|-------||
-------------------|-------|-------|-------|-------|-------|-------||




Duration Legend
---------------
W - whole
H - half
Q - quarter
E - 8th
S - 16th
T - 32nd
X - 64th
. - note dotted
|-n-|  - n-tuplets


Tablature Legend
----------------
L - tied note
x - dead note
g - grace note
(n) - ghost note
> - accentuded note
NH - natural harmonic
AH - artificial harmonic
TH - tapped harmonic
SH - semi harmonic
PH - pitch harmonic
h - hammer on
p - pull off
b - bend
br - bendRelease
pb - preBend
pbr - preBendRelease
brb - bendReleaseBend
\n/ - tremolo bar dip
\n - tremolo bar dive
-/n - tremolo bar Release up
/n\ - tremolo bar inverted dip
/n - tremolo bar return
-\n - tremolo bar Release down
S - shift slide
s - legato slide
/ -  slide into from below or out of upwards
\ -  slide into from above or out of downwards
~ - vibrato
W - wide vibrato
tr - trill
TP - tremolo picking
T - tapping
S - slap
P - pop
< - fade in
^ - brush up
v - brush down





Comments


Popular Tesla tabs & chords
Little Suzi 2 Bass Tabs
Modern Day Cowboy Bass Tabs
Signs 1 Chords
Words Can't Explain Chords
Change In The Weather Tabs
Forever More 4 Tabs
Heaven Nine Eleven Intro Tabs
Modern Day Cowboy Tabs
Pvt Ledbetter Tabs
The Game Tabs


Song lyrics



↑ Back to top | Tablatures and chords are parodies/interpretations of the original songs. You may use it for private study, scholarship, research or language learning purposes only
© 2014 AZChords.com Contact us | Privacy policy | DMCA | Add/correct tabs | Request tabs | Top 50 tabs