» » »

Tenacious D, Kielbasa Tabs (ver.1)

Artists:  A B C D E F G H I J K L M N O P Q R S T U V W X Y Z # 

Kielbasa Tabs (ver.1)

Tenacious D Tabs
Rating:
0/5 (0 votes)
Kielbasa lessons Tabs too difficult? Try these video lessons and learn fast
                PROPS GO TO: Lurm



Here's the main phrase (the intro and under the verses):

    G     F  C                   G       F  C     
e-----00--1--0-----              --------1--0
b---3-30-01--1-----              --------1--1
g---3-30-020-0----0  (3 times)   --------20-0
d---0-00--3-32-0h2-              --------3-32
a---------3-03-----              -23202-03-03
e-33-3--3-1--------              3-----3-----


Kyle's acoustic jam starts like this:
e--66666-----------------------------
b--88888--s10-8----------------------
g--00000--------10--9h10p9h10p9------ 
d-------------------------------8h10p8  etc.
a------------------------------------
e------------------------------------


"get it on" (falsetto) and then
  G       C          
e-------------------
b-------------------
g---------0000000---  (try to mute the others strings)
d-0000000-3332222---
a-3332222-3332222---
e-3333333-----------
                B                          C
"It's tenacious D time you motherf**ker go" 

      G    C B C
"f**k yeah"

ends on G and then harmonics on 5th fret
e------
b----5-
g---5--
d--5---
a------
e------
            
Submit corrections

comments powered by Disqus
↑ Back to top | Tenacious D Tabs for Kielbasa. Lyrics for acoustic guitar and electric guitar. Tablatures and chords are parodies/interpretations of the original songs. You may use it for private study, scholarship, research or language learning purposes only