» » »

Kielbasa Tabs (ver.3)

Artists:  A B C D E F G H I J K L M N O P Q R S T U V W X Y Z # 

Kielbasa Tabs (ver.3)

Tenacious D
Rating:
0/5 (0 votes)

Tabs too difficult? Try these video lessons and learn fast.
                Dude, we gotta ***in write somethin new c’mon.... (D chord) 
I dont like that so far off to a bad start.... (C Chord) 
Better, closer, warmer, (A chord) Thats it.... 

Verse 

 G		    F        C                  G         F      C            
------3-0-3-0----0-2-0-----------------------3-0-3-0---0-2-0--------------
-0-0-----------------------3-2-0--0p2-0--------------------------3-2------


G		    F        C                  G         F      C              
------3-0-3-0----0-2-0-----------------------------------------2-0--------
-0-0-----------------------3-2-0--0p2-0-----------------------------3-2---
---------------------------------------------------2-3-2-0-2--------------
------------------------------------------------3--------------3----------
Chorus

G		    F        C                  G         F      C           
-6------------------------------------------------------------------------
-8--------8s10-8-6-5--5p6-8-6-5-6-5-----5p6-5-----------------------------
-7-------------------------------------7-----7-5--------7-5---------------
-8------------------------------------------------------------------------

Ending

-3-----------3---------1--------0-----------------------------------------
-3-----------3---------1--------1-----------------------------------------
-0-----------0---------2--------0-----------------------------------------
-0-----------2---------3--------2-----------------------------------------
-2-----------3------------------3-----------------------------------------
-3------------------------------------------------------------------------


---------------0--------------------1-------------------------------------
---------------0--------------------1-------------------------------------
---------------0--------------------2-------------------5---4----------4--
---------------2--------------------3-------------------4---4----2-----3--
---------------2--------------------3-------------------4---3----2-----3--
---------------0--------------------1-------------------3--------0-----1--

Enjoy this tab by the greatest band in the world!
            
Tabs too difficult? Try these video lessons and learn fast.




comments powered by Disqus
↑ Back to top | Tablatures and chords are parodies/interpretations of the original songs. You may use it for private study, scholarship, research or language learning purposes only