>
 >
Classico 1

Classico 1 Guitar Tabs

Tenacious D - Classico 1 chords, tabs, tablatures, lyrics

Guitar lessons | Add/correct | Request | Top 50 tabs Artists:  A B C D E F G H I J K L M N O P Q R S T U V W X Y Z 0-9

Classico 1 Guitar Tabs – Tenacious D

CD, Sheet music, Poster

Do you like Classico 1? Share with your friends now
Bass TabsTabsTabs v2Tabs v3Tabs v4Tabs v5
E||---0-2-3---2-0-----0-2---------------------------------------------|
B||---------------4-------0---2-4-5---3-1-0----------------0----------|
G||-------------------------------------------2-0------0-2---2-0------|
D||------------------------------------------------4-------------4-2--|
A||-------------------------------------------------------------------|
E||-------------------------------------------------------------------|x2

E||------0---|--0---0-------|--------------|--------------|----------0---|
B||--------4-|----4---0-3-1-|--------------|--0---------0-|--1---------4-|
G||----------|--------------|--2---2-----2-|------1---1---|------2-------|
D||----------|--------------|----2-----2---|----2---2-----|----2---2-----|
A||----------|--------------|--0-----3-----|--------------|--0-----------|
E||----------|--------------|--------------|--0-----------|--------------|

--0---0-------|--------------|--------------|---------0---|--0---0-------|
----4---0-3-1-|--------------|--0-------1-0-|-----------4-|----4---0-3-1-|
--------------|--2---2-----2-|------1-------|--2---2------|--------------|
--------------|----2-----2---|----2---2-----|----2--------|--------------|
--------------|--0-----3-----|--------------|--0----------|--------------|
--------------|--------------|--0-----------|-------------|--------------|

--------------|--------------|----------0---|--0---0-------|--------------|
--------------|--0---------0-|--1---------4-|----4---0-3-1-|--------------|
--2---2-----2-|------1---1---|------2-------|--------------|--2---2-----2-|
----2-----2---|----2---2-----|----2---2-----|--------------|----2-----2---|
--0-----3-----|--------------|--0-----------|--------------|--0-----3-----|
--------------|--0-----------|--------------|--------------|--------------|

--------------|--------------|--0-------1-0-|----------0---|--------------|
--0-------1-0-|--------0-1-3-|------1-------|--3---0-----3-|--1-------3-1-|
------1-------|--2---2-------|--------0-----|----0---------|------2-------|
----2---0-----|----2---------|----2---------|--------3-----|----2---2-----|
--------------|--0-----------|--3-----------|--------------|--0-----------|
--0-----------|--------------|--------------|--3-----------|--------------|

------0---0---|--0---12---0---|--0---0---0---|--0---0-------|--------------|
--0-----------|---------4---4-|----4---4---4-|----4---0-3-1-|--------------|
--------------|----9----------|--------------|--------------|--2---2-----2-|
----2---2---2-|---------------|--------------|--------------|----2-----2---|
--------------|---------------|--------------|--------------|--0-----3-----|
--0-----------|---------------|--------------|--------------|--------------|

--------------|----------0---|--0---0-------|--------------|--------------|
--0---------0-|--1---------4-|----4---0-3-1-|--------------|--0-------1-0-|
------1---1---|------2-------|--------------|--2---2-----2-|------1-------|
----2---2-----|----2---2-----|--------------|----2-----2---|----2---0-----|
--------------|--0-----------|--------------|--0-----3-----|--------------|
--0-----------|--------------|--------------|--------------|--0-----------|

--------------|--0-------1-0-|----------0---|--------------|------0---0---|
--------0-1-3-|------1-------|--3---0-----3-|--1-------3-1-|--0-----------|
--2---2-------|--------0-----|----0---------|------2-------|--------------|
----2---------|----2---------|--------3-----|----2---2-----|----2---2---2-|
--0-----------|--3-----------|--------------|--0-----------|--------------|
--------------|--------------|--3-----------|--------------|--0-----------|

--0---12---0---|--0---0---0---|--0---0-------|--------------|--------------|
---------4---4-|----4---4---4-|----4---0-3-1-|--------------|--0---------0-|
---------------|--------------|--------------|--2---2-----2-|------1---1---|
---------------|--------------|--------------|----2-----2---|----2---2-----|
---------------|--------------|--------------|--0-----3-----|--------------|
----0----------|--------------|--------------|--------------|--0-----------|

----------0---|--0---0-------|--------------|--------------|--------------|
--1---------4-|----4---0-3-1-|--------------|--0-------1-0-|--------1-1-1-|
------2-------|--------------|--2---2-----2-|------1-------|--2---2-----3-|
----2---2-----|--------------|----2-----2---|----2---0-----|----2---2-3-2-|
--0-----------|--------------|--0-----3-----|--------------|--0-----1-0---|
--------------|--------------|--------------|--0-----------|------------3-|

----------1---0-|----------6---5-|--5/3-1-0-----|------------------|
--1-------1-----|--5---3---3-----|----------3-1-|------------------|
--2-2---2---2---|----3---3---3---|--------------|--3---2---2-0-2-3-|
------3---------|--3-------------|--3/2-0-2-3-2-|--3---------------|
----------------|----------------|--------------|----3-3h0---------|
--1-------------|----------------|--------------|------------------|

--------------|--0-----0-1---|----------------|----3---3---3---3---3---3-|
--1-------3-4-|------1-------|--1-------3---0-|--1-----------0---1---3---|
--2-2---2-----|----2---2---2-|----------------|------0---2---------------|
--3---3-------|--2-------0-3-|----2---3---3---|--------------3---2---0---|
--------------|--------------|----------------|--3-----------------------|
--------------|--------------|--3---3---3-----|--------------------------|

--0-3-8h7-5h3-1-0---3-1---|----3---3---3---3---3---3-|
------------------3-----3-|--1-----------0---1---3---|
------------------0-------|------0---2---------------|
----------3---------------|--------------3---2---0---|
--3/--7-------------------|--3-----------------------|
--------------------------|--------------------------|

--0-3-8h7-5h3-1-0---3-1---|--0-1-0---0---0---0---0---|--0-----0---|--0-----0---|
------------------3-----3-|--------4---0---4---0---4-|------0---4-|------0---4-|
------------------0-------|--1-----------------------|------------|------------|
----------3---------------|--------------------------|------------|------------|
--3/--7-------------------|--------------------------|------------|------------|
--------------------------|--------------------------|------------|------------|

--0---0---0---|--0---0-------|--------------|--------------|----------0---|
----4---4---4-|----4---0-3-1-|--------------|--0---------0-|--1---------4-|
--------------|--------------|--2---2-----2-|------1---1---|------2-------|
--------------|--------------|----2-----2---|----2---2-----|----2---2-----|
--------------|--------------|--0-----3-----|--------------|--0-----------|
--------------|--------------|--------------|--0-----------|--------------|

--0---0-------|--------------|--------------|--------------|--0-------1-0-|
----4---0-3-1-|--------------|--0-------1-0-|--------0-1-3-|------1-------|
--------------|--2---2-----2-|------1-------|--2---2-------|--------0-----|
--------------|----2-----2---|----2---0-----|----2---------|----2---------|
--------------|--0-----3-----|--------------|--0-----------|--3-----------|
--------------|--------------|--0-----------|--------------|--------------|

----------0---|--------------|------0---0---|--0---12---0---|--0---0---0---|
--3---0-----3-|--1-------3-1-|--0-----------|---------4---4-|----4---4---4-|
----0---------|------2-------|--------------|---------------|--------------|
--------3-----|----2---2-----|----2---2---2-|---------------|--------------|
--------------|--0-----------|--------------|---------------|--------------|
--3-----------|--------------|--0-----------|----0----------|--------------|

--0---0-------|--------------|--------------|----------0---|--0---0-------|
----4---0-3-1-|--------------|--0---------0-|--1---------4-|----4---0-3-1-|
--------------|--2---2-----2-|------1---1---|------2-------|--------------|
--------------|----2-----2---|----2---2-----|----2---2-----|--------------|
--------------|--0-----3-----|--------------|--0-----------|--------------|
--------------|--------------|--0-----------|--------------|--------------|

--------------|--------------|--------------|--------------|----------0-1-|
--------------|--0-------1-0-|--------------|--2-----------|--3-------2-3-|
--2---2-----2-|------1-------|--2-----------|--3-----------|--2-----------|
----2-----2---|----2---0-----|--------------|--5-----------|--3-----------|
--0-----3-----|--------------|--0-0-0-0-0-0-|--0-0-0-0-0-0-|--0-0-0-0-0-0-|
--------------|--0-----------|--------------|--------------|--------------|

--1-------1---|--0-----------|-----------|----------|--------------|
--3-------3---|--1-----------|--3----1-0-|----------|------1---0---|
--1-------1---|--2-----------|-----------|--2----2--|--2-------1---|
--------------|--------------|--3----2-0-|--4-------|------2-------|
--0-0-0-0-0-0-|--0-0-0-0-0-0-|--0--------|--3----3--|--3-----------|
--------------|--------------|-----------|--5-------|--0-0-0-0-0-0-|

--------------|--------------|----------0-1-|--1-------1---|--1-----------|
--------------|--2-----------|--3-------2-3-|--3-------3---|--3-----------|
--2-----------|--3-----------|--2-----------|--------------|--------------|
--------------|--5-----------|--3-----------|--------------|--------------|
--3h0-0-0-0-0-|--0-0-0-0-0-0-|--0-0-0-0-0-0-|--0-0-0-0-0-0-|--1-1-1-1-1-1-|
--------------|--------------|--------------|--------------|--------------|

--------------|--------------|--------------|---------|---------|
--4-------3-1-|--------------|--------------|---------|--0------|
--0-----------|--3-------2---|--1-------1---|--2------|--1------|
----------3---|--0-------3---|--3-------3---|--2------|--2------|
--1-1-1-1-1-1-|--1-1-1-1-1-1-|--2-2-2-2-2-2-|--3------|---------|
--------------|--------------|--------------|---------|--0------|

------------0-------|------0----8-12-10h8----|------0----8-12-10h8----|
----------1---3h1-0-|----1---10-----------12-|----1---10-----------12-|
--------2-----------|--2---------------------|--2---------------------|
------2-------------|------------------------|------------------------|
--0h3---------0-----|--0-------------0-------|--0-------------0-------|
--------------------|------------------------|------------------------|

------------------------|--------------------|------0-------|--------------|
--11-10-9-8-----------3-|--2-1-0-------------|----4---0-3-1-|--------------|
------------11-10-9-8---|--------3-2-1-0-----|--------------|--2---2-----2-|
------------------------|----------------4-3-|--2-----------|----2-----2---|
--0---------------------|--------------------|--------------|--0-----3-----|
------------------------|--------------------|--------------|--------------|

--------------|----------0---|--0---0-------|--------------|--------------|
--0---------0-|--1---------4-|----4---0-3-1-|--------------|--0-------1-0-|
------1---1---|------2-------|--------------|--2---2-----2-|------1-------|
----2---2-----|----2---2-----|--------------|----2-----2---|----2---0-----|
--------------|--0-----------|--------------|--0-----3-----|--------------|
--0-----------|--------------|--------------|--------------|--0-----------|

--------------|--0-------1-0-|----------0---|--------------|------0---0---|
--------0-1-3-|------1-------|--3---0-----3-|--1-------3-1-|--0-----------|
--2---2-------|--------0-----|----0---------|------2-------|--------------|
----2---------|----2---------|--------3-----|----2---2-----|----2---2---2-|
--0-----------|--3-----------|--------------|--0-----------|--------------|
--------------|--------------|--3-----------|--------------|--0-----------|

--0---12---0---|--0---0---0---|--0---0-------|--------------|--------------|
---------4---4-|----4---4---4-|----4---0-3-1-|--------------|--0---------0-|
----9----------|--------------|--------------|--2---2-----2-|------1---1---|
---------------|--------------|--------------|----2-----2---|----2---2-----|
---------------|--------------|--------------|--0-----3-----|--------------|
---------------|--------------|--------------|--------------|--0-----------|

----------0---|--0---0-------|--------------|--------------|---------||
--1---------4-|----4---0-3-1-|--------------|--0-------1-0-|---------||
------2-------|--------------|--2---2-----2-|------1-------|--2------||
----2---2-----|--------------|----2-----2---|----2---0-----|---------||
--0-----------|--------------|--0-----3-----|--------------|--0------||
--------------|--------------|--------------|--0-----------|---------||

Yes, I Didn't do this myself. I got theseparts from Bach and Beethoven so it easier to find.





Comments


Popular Tenacious D tabs & chords
Rock Your Socks Off Bass Tabs
Beelzeboss Chords
Kickapoo Chords
Kickapoo 1 Chords
Classico 3 Tabs
Explosivo 2 Tabs
Master Exploder 4 Tabs
Dude I Totally Miss You Ukulele
Kyle Took A Bullet For Me Ukulele
Sex Supreme Ukulele


Song lyrics



↑ Back to top | Tablatures and chords are parodies/interpretations of the original songs. You may use it for private study, scholarship, research or language learning purposes only
© 2014 AZChords.com Contact us | Privacy policy | DMCA | Add/correct tabs | Request tabs | Top 50 tabs