» » »

Tenacious D, Classico Bass tabs (ver.1)

Artists:  A B C D E F G H I J K L M N O P Q R S T U V W X Y Z # 

Classico Bass tabs (ver.1)

Tenacious D Tabs
Rating:
5/5 (3 votes)
Classico lessons Tabs too difficult? Try these video lessons and learn fast
                ------------------------------------------------------------------------------
------------------------------------------------------------------------------

wrong, regardless of how I enter it. >.>



Basically, I just took the highest rated guitar tab and brought those notes 
down to the G, D, A, and E in order to make the bass part, even though there
really isn't bass in the song. So credit to whoever made that guitar tab.


Tuning: Standard


Part I: Boree in E Minor (Bach)

G|-9-11-12-11-9-8-9-11-------8-9---------------------------------------------|
D|---------------------9--11-----12-10-9-------------------------------------|
A|---------------------------------------12-10-9-10-12-14-12-10-9-7----------|
E|---------------------------------------------------------------------------|



Part II:  Fur Elise (Beethoven) [Note: For the right octave, if you have a 5
string bass, feel free to use it. The note it's needed for is included in 
parentheses.)

G|-16-15-16-15-16-11-14-12------------11-------11-12-------------------------|
D|------------------------14-------14-------13-------------------------------|
A|------------------------------14-------14----------------------------------|
E|---------------------------12----------------------------------------------|
B|--------------------------------------(12)---------------------------------|

G|-16-15-16-15-16-11-14-12------------11-------11-12-------------------------|
D|------------------------14-------14-------13-------------------------------|
A|------------------------------14-------14----------------------------------|
E|---------------------------12----------------------------------------------|
B|--------------------------------------(12)---------------------------------|


G|----------16-16-17-16-14-14-11-14-12-12-14-12-11---------------------------|
D|-14-17-15----------------------------------------9-9-8-9-8-9-8-------------|
A|---------------------------------------------------------------------------|
E|---------------------------------------------------------------7-6-7-6-7-6-|


G|-16-15-16-15-16-11-14-12---------------------------------------------------|
D|-------------------------14tremolo13---------------------------------------|
A|---------------------------------------------------------------------------|
E|---------------------------------------------------------------------------|



Part III: Eine Kleine Nachtmusik (Mozart)

G|--------------8-11-9----9----9---------------8-6-------6-9---6-4-8-4-------|
D|-9---9---9-----------11---11---11-8-11---9-9-----9-9-8-----8---------4-4-3-|
A|---9---9---9---------------------------9-----------------------------------|
E|---------------------------------------------------------------------------|

G|----9-3-4-4-3h4p3h4--4-4-3h4p3h4-8-8-6h8p6h8-8-11h13-11-9-9-9-9-8-8-8-8----|
D|-11------------------------------------------------------------------------|
A|---------------------------------------------------------------------------|
E|---------------------------------------------------------------------------|

G|-8-8-8-8-6-6-6-6-4-1-3-4---------------------------------------------------|
D|------------------------------------------------------6-8-10-11----10------|
A|----------------------------------------------------9-----------11----11---|
E|---------------------------------------------------------------------------|

G|-10----11----10----10----11-11-11-11-10-10-10-10-10-10-10-11-11-11---------|
D|----11----11----11----11---------------------------------------------------|
A|---------------------------------------------------------------------------|
E|---------------------------------------------------------------------------|


| h - hammer-on
| p - pull-off

That's all. Have fun. :P

==============================================================================
            

comments powered by Disqus
↑ Back to top | Tenacious D Bass for Classico. Lyrics for acoustic guitar and electric guitar. Tablatures and chords are parodies/interpretations of the original songs. You may use it for private study, scholarship, research or language learning purposes only