» » »

Tame Impala, Desire Be Desire Go Tabs (ver.2)

Artists:  A B C D E F G H I J K L M N O P Q R S T U V W X Y Z # 

Desire Be Desire Go Tabs (ver.2)

Tame Impala Tabs
Rating:
0/5 (0 votes)
Hard to play? Try these video lessons and learn fast.
                                        Tame Impala - Desire Be, Desire Go
                        from their 2010 album Innerspeaker

Fuzzy intro part:
Guitar 1:         Guitar 2:
e|----------------|----------------|
B|-3--------------|----------------|
G|-5b7------------|----------------|
D|----------------|------12~~~~----|
A|----------------|----------------|
E|----------------|----------------|

Verse:
"Feel it come, I-I don't know
How long it's, go-o-onna
Stay with me, whoa-oa, I let
Desire be, de-esire go,
Ooh"
e|------------------------|
B|------------------------|
G|-6--8-----6/8-6/8-------| x6
D|-6--8--8--6/8-6/8-8--6--|
A|-4--6--8--4/6-4/6-8--6--|
E|-------6----------6--4--|

Pre-chorus:
"Dare I face the real world"
e|---------------------4--6--|
B|---------------------6--6--|
G|-6--8-----6/8-6/8----5--7--|
D|-6--8--8--6/8-6/8-8--6--8--|
A|-4--6--8--4/6-4/6-8--4--8--|
E|-------6----------6-----6--|

Chorus:
"Everyday, back and forth, what's it for?
What's it for? Back and forth, everyday,
Everyday, back and forth, what's it for?
I don't know, I'll get out won't have to..."
e|------------------|
B|------------------|
G|------------------| x4
D|-5---7---8---10---|
A|-5---7---8---10---|
E|-3---5---6----8---|

"...che..."
e|------|
B|------|
G|------|
D|-6----|
A|-6----|
E|-4----|

Verse:
"...eck my watch, I-I don't have
The verve to be-elong to
This dead side, whoa-oa, why I
Ever tried, I-I don't know
Ooh"
e|------------------------|
B|------------------------|
G|-6--8-----6/8-6/8-------| x6
D|-6--8--8--6/8-6/8-8--6--|
A|-4--6--8--4/6-4/6-8--6--|
E|-------6----------6--4--|

Pre-chorus:
"Dare I face the real world"
e|---------------------4--6--|
B|---------------------6--6--|
G|-6--8-----6/8-6/8----5--7--|
D|-6--8--8--6/8-6/8-8--6--8--|
A|-4--6--8--4/6-4/6-8--4--8--|
E|-------6----------6-----6--|

Chorus:
"Everyday, back and forth, what's it for?
What's it for? Back and forth, everyday,
Everyday, back and forth, what's it for?
I don't know, I forget, try to let..."
e|------------------|
B|------------------|
G|------------------| x4
D|-5---7---8---10---|
A|-5---7---8---10---|
E|-3---5---6----8---|

"...de-e..."
e|------|
B|------|
G|------|
D|-6----|
A|-6----|
E|-4----|

"...esire be, de-esire go"
e|------------------------|
B|------------------------|
G|-6--8-----6/8-6/8-------|
D|-6--8--8--6/8-6/8-8--6--|
A|-4--6--8--4/6-4/6-8--6--|
E|-------6----------6--4--|

Pre-solo riff:
e|----------------------------------------------------------|
B|----------------------------------------------------------|
G|----------------------------------------------------8-----|
D|----------------------------------------------------8-----|
A|-6/8-8--8-8--6/8-8--8-8--9\8-8-9\8-8-8\6-6/8-8--8-8-8-----|
E|----------------------------------------------------------|

Guitar solo:
e|-----------------------------------------------------|
B|-6---6b7-4---4---------------------------------------|
G|-----------7---5-------5h7-8~~~-------5h7-8~~~-------|
D|-----------------------------------------------------|
A|-----------------------------------------------------|
E|-----------------------------------------------------|

This part is actually whammy bar vibrato, going from the 4th fret to the 3rd fret and
back and forth. I'm not sure how to tab whammy stuff, so this is how to do it without
a whammy bar. It's a bit confusing to read, but it's basically starting with the
string pre-bent to the 4th fret F# note and bending down to the F note and back up
and then down over and over again:
e|----------------------------------------------------------|
B|----------------------------------------------------------|
G|----------------------------------------------------------|
D|-3pb4--r3b4r3b4r3b4r3b4r3b4r3b4r3b4r3b4r3b4r3b4r3b4r3b4---|
A|----------------------------------------------------------|
E|----------------------------------------------------------|

e|----------------------------------------------------------|
B|----------------------------------------------------------|
G|----------------------------------------------------------|
D|-/8\4-----------------------------------------------------|
A|--------/8~~~---------------------------------------------|
E|----------------------------------------------------------|

e|-------------------------------------------------------------|
B|-------------------------------------------------------------|
G|-------------------------------------------------------------|
D|-------------------------------------------------------------|
A|-8--6-5-5-6--8--6-5-6/8-6--9---8--6-5-5-6--8--6-5-6/8-6--9---|
E|-------------------------------------------------------------|

e|----------------------------------------------------------------------|
B|----------------------------------------------------------------------|
G|-6h8-8-6h8-8-6h8-6h8-6----6-8-8b10-8b11r8--6--8-6-6h8-6-6h8-6-6h8-6---|
D|-----------------------8----------------------------------------------|
A|----------------------------------------------------------------------|
E|----------------------------------------------------------------------|

e|-------------------------------------------------------|
B|----------7---6----------------------------------------|
G|-----6h8--------5-------------6--\5--\3--6\5-6\5-3--1--|
D|-6h8---------------------------------------------------|
A|-------------------------------------------------------|
E|-------------------------------------------------------|

Verse chords again:
e|------------------------|
B|------------------------|
G|-6--8-----6/8-6/8-------| x4
D|-6--8--8--6/8-6/8-8--6--|
A|-4--6--8--4/6-4/6-8--6--|
E|-------6----------6--4--|

Bridge:
"Feel,
Feel it come,
Feel it come,
Ah..."
e|-------------------------------------------------|
B|-------------------------------------------------|
G|-------------------------------------------------| x4 (slightly palm muted)
D|-------------------------------------------------|
A|-9--9h11-9h11-9-----9h11-11-9-11p9----------9h11-|
E|----------------11-----------------11--9h11------|

Verse:
"Feel it come, I-I don't know
How long it's, go-o-onna
Stay with me, whoa-oa, I let
Desire be, de-esire go"
e|------------------------|
B|------------------------|
G|-6--8-----6/8-6/8-------| x4
D|-6--8--8--6/8-6/8-8--6--|
A|-4--6--8--4/6-4/6-8--6--|
E|-------6----------6--4--|

Fade out.


************************************

| /   slide up
| \   slide down
| h   hammer-on
| p   pull-off
| ~   vibrato
| +   harmonic
| x   Mute note
| b   Bend
| pb  Pre-bend
| br  Bend release
| pbr Pre-bend release
| brb Bend release bend

************************************
            

comments powered by Disqus
↑ Back to top | Tame Impala Tabs for Desire Be Desire Go. Lyrics for acoustic guitar and electric guitar. Tablatures and chords are parodies/interpretations of the original songs. You may use it for private study, scholarship, research or language learning purposes only