>
 >
Elephant

Elephant Bass Tabs

Tame Impala - Elephant chords, tabs, tablatures, lyrics

Guitar lessons | Add/correct | Request | Top 50 tabs Artists:  A B C D E F G H I J K L M N O P Q R S T U V W X Y Z 0-9

Elephant Bass Tabs – Tame Impala

CD, Sheet music, Poster

Do you like Elephant? Share with your friends now
Bass TabsBass Tabs v2TabsTabs v2
Tame Impala ///// Elephant ///// Lonerism

Bass Tab


Intro/Verse1
G||-------------------------------------------||
D||-------------------------------------------||
A||-5--5-5--5-5--5-5--5-5--5-5--5-5--5-5-8--8-||
E||-------------------------------------------||

 and it feels like an elephant. . .
G||-------------------------------------------|
D||-------------------------------------------|
A||-5--5-5--5-5--5-5--5-5--5-5--5-5--5-5--5-5-|
E||-------------------------------------------|

G||-----------------------------------|
D||-----------------------------------|
A||-5-5--5-5--5-5--5-5--5-5--5-5-8--8-|
E||-----------------------------------|

G||------------------------------||
D||---5---5---5---5---5---5---5--||
A||------------------------------||
E||-3---3---3---3---3---3---3----||


G||-------------------------------------------|
D||-------------------------------------------|
A||-5--5-5--5-5--5-5--5-5--5-5--5-5--5-5--5-5-|
E||-------------------------------------------|

G||-----------------------------------------------||
D||-7--8--7--6--7--6--5---------------------------||
A||------------------------------------------8--8-||
E||-----------------------------------------------||



Verse2
G||-------------------------------------------||
D||-------------------------------------------||
A||-5--5-5--5-5--5-5--5-5--5-5--5-5--5-5-8--8-||
E||-------------------------------------------||

and its not like . . . 
G||-------------------------------------------|
D||-------------------------------------------|
A||-5--5-5--5-5--5-5--5-5--5-5--5-5--5-5--5-5-|
E||-------------------------------------------|

G||-----------------------------------|
D||-----------------------------------|
A||-5-5--5-5--5-5--5-5--5-5--5-5-8--8-|
E||-----------------------------------|

G||-------------------------------10h12---||
D||-----------------5---5---10h12---------||
A||---------------------------------------||
E||-3---3---3---3-------------------------||


G||-------------------------------------------|
D||-------------------------------------------|
A||-5--5-5--5-5--5-5--5-5--5-5--5-5--5-5--5-5-|
E||-------------------------------------------|

G||-----------------------------------------------||
D||-7--8--7--6--7--6--5---------------------------||
A||------------------------------------------8--8-||
E||-----------------------------------------------||



Verse3
G||-------------------------------------------||
D||-------------------------------------------||
A||-5--5-5--5-5--5-5--5-5--5-5--5-5--5-5-8--8-||
E||-------------------------------------------||

he's got friends but . . . 
G||-------------------------------------------|
D||-------------------------------------------|
A||-5--5-5--5-5--5-5--5-5--5-5--5-5--5-5--5-5-|
E||-------------------------------------------|

G||-----------------------------------|
D||-----------------------------------|
A||-5-5--5-5--5-5--5-5--5-5--5-5-8--8-|
E||-----------------------------------|

G||-------------------------------10h12---||
D||-----------------5---5---10h12---------||
A||---------------------------------------||
E||-3---3---3---3-------------------------||


G||-------------------------------------------|
D||-------------------------------------------|
A||-5--5-5--5-5--5-5--5-5--5-5--5-5--5-5--5-5-|
E||-------------------------------------------|

G||----------------------------------||
D||-10--9--8--7--5-------------------||
A||-----------------8--7--6--5-------||
E||----------------------------------||

Short Pause.. (here it comes) 

G||------------------------|------------------------|
D||------------------------|------------------------|
A||-5--5--5--5--5--5--5--5-|-5--5--5--5--5--5--5--8-|
E||------------------------|------------------------|

G||--------------------------------|------------------------------||
D||--------------------------------|------------------------------||
A||-10--10--10--10--10--10--10--10-|-10--10--10--7--8-10----------||
E||--------------------------------|---------------------0--0h3h5-||
 

G||------------------------|------------------------|
D||------------------------|------------------------|
A||-5--5--5--5--5--5--5--5-|-5--5--5--5--5--5--5--8-|
E||------------------------|------------------------|

G||----------------------------|
D||-10--9--8--7--5-------------|
A||-----------------8--7--6--5-|
E||----------------------------|

G||----------------------------------------||
D||----------------------------------------||
A||-5-5--5-5--5-5--5-5--5-5--5-5--5-5--5-5-||
E||----------------------------------------||


G||-------------------------5-|------------------------|
D||---------------------5-7---|------------------------|
A||-5--5--5--5--5--5--5-------|-5--5--5--5--5--5--5--8-|
E||---------------------------|------------------------|

G||-----------------------------------|------------------------------||
D||-----------------------------------|------------------------------||
A||-10--10--10--10--12p10-1010-10--10-|-10--10--10--7--8-10----------||
E||-----------------------------------|---------------------0--0-3-5-||

G||------------------------|------------------------|
D||------------------------|------------------------|
A||-5--5--5--5--5--5--5--5-|-5--5--5--5--5--5--5--8-|
E||------------------------|------------------------|

G||----------------------------|
D||-10--9--8--7--5-------------|
A||-----------------8--7--6--5-|
E||----------------------------|

G||----------------------------------------||
D||----------------------------------------||
A||-5-5--5-5--5-5--5-5--5-5--5-5--5-5--5-5-||
E||----------------------------------------||


G||------------------------|------------------------|
D||------------------------|------------------------|
A||-5--5--5--5--5--5--5--5-|-5--5--5--5--5--5--5--5-|
E||------------------------|------------------------|

G||-----------------------------------|--------------------------------||
D||-----------------------------------|--------------------------------||
A||-10--10--10--10--12p10-1010-10--10-|-17/-10--10--10--10--10--10--10-||
E||-----------------------------------|--------------------------------||

G||---------------------------------------------| x2
D||---------------------------------------------|
A||-5-5-7p5-5-5-5-7p5-5-5-5-7p5-5-7p5-5-7p5-5-5-|
E||---------------------------------------------|

G||----------------------------||
D||-10--9--8--7--5-------------||
A||-----------------8--7--6--5-||
E||----------------------------||



Verse4
G||-------------------------------------------||
D||-------------------------------------------||
A||-5--5-5--5-5--5-5--5-5--5-5--5-5--5-5-8--8-||
E||-------------------------------------------||

he pulled the mirrors off . . . 
G||-------------------------------------------|
D||-------------------------------------------|
A||-5--5-5--5-5--5-5--5-5--5-5--5-5--5-5--5-5-|
E||-------------------------------------------|

G||-----------------------------------|
D||-----------------------------------|
A||-5-5--5-5--5-5--5-5--5-5--5-5-8--8-|
E||-----------------------------------|

G||-----------------------------10h12p10----10h12-||
D||------------3-h5---5---10h12---------h12-------||
A||------3-h5-------------------------------------||
E||-3---------------------------------------------||

G||---------------------------------------------|
D||---------------------------------------------|
A||-5--5-5--5-5--5-5--5-5--5-5--5-5--5-5--5-5-8-|
E||---------------------------------------------|

Somebody grab his collar. . . 
G||-------------------------------------------|
D||-------------------------------------------|
A||-5--5-5--5-5--5-5--5-5--5-5--5-5--5-5--5-5-|
E||-------------------------------------------|

G||-----------------------------------|
D||-----------------------------------|
A||-5-5--5-5--5-5--5-5--5-5--5-5-8--8-|
E||-----------------------------------|

G||-----------------------------10h12p10----10h12-||
D||------------3-h5---5---10h12---------h12-------||
A||------3-h5-------------------------------------||
E||-3---------------------------------------------||

G||-------------------------------------------|
D||-------------------------------------------|
A||-5--5-5--5-5--5-5--5-5--5-5--5-5--5-5--5-5-|
E||-------------------------------------------|

G||------------------------------------------|
D||-7--8--7--6--7--6--5----------------------|
A||------------------------------------------|
E||------------------------------------------|

G||---------------------------------||
D||---------------------------------||
A||-8--8----5-5--5-5--5-5--5-5--5-5-||
E||---------------------------------||





Comments


Popular Tame Impala tabs & chords
Desire Be Desire Go 1 Bass Tabs
Mind Mischief Bass Tabs
Alter Ego Tabs
Expectation Tabs
Milky Way Spiral Gets A New Arm Tabs
Runaway Houses City Clouds Tabs
Slide Through My Fingers 1 Tabs
Solitude Is Bliss Tabs
Sundown Syndrome 1 Tabs
Feels Like We Only Go Backwards Ukulele


Song lyrics



↑ Back to top | Tablatures and chords are parodies/interpretations of the original songs. You may use it for private study, scholarship, research or language learning purposes only
© 2014 AZChords.com Contact us | Privacy policy | DMCA | Add/correct tabs | Request tabs | Top 50 tabs