>
 >
Alter Ego

Alter Ego Bass Tabs

Tame Impala - Alter Ego chords, tabs, tablatures, lyrics

Guitar lessons | Add/correct | Request | Top 50 tabs Artists:  A B C D E F G H I J K L M N O P Q R S T U V W X Y Z 0-9

Alter Ego Bass Tabs – Tame Impala

CD, Sheet music, Poster

Do you like Alter Ego? Share with your friends now
Bass TabsChordsTabsUkulele

Allbum: InnerSpeaker




Verse

G||--------|-------------------||
D||--------|-------------------||
A||--wait--|--17h19-------15/--||
E||--------|---------15h17-----||

G||------------------------------------------------------------|
D||------------------------------------------------------------|
A||-------------------------------/8-----8-8-----8-8-----8-8/--|
E||--1-----1-1-----1-1-----1-1---------------------------------|

G||--------------------------------------------------------------------||
D||--------------------------------------------------------------------||  x5
A||--3-----3-3/-----10-----10-10\-----7-----7-5-----5-3-----3-2-----2--||
E||--------------------------------------------------------------------||

---

G||------------------------------------------------------------|
D||------------------------------------------------------------|
A||-------------------------------/8-----8-8-----8-8-----8-8/--|
E||--1-----1-1-----1-1-----1-1---------------------------------|

G||---------------------------------------------------------------||
D||---------------------------------------------------------------||
A||--17-----17-17/-----22-----22-22\--------------17----19/20\19--||
E||--------------------------------------17h19h20-----------------||

---

G||------------------------------------------------------------|
D||------------------------------------------------------------|
A||-------------------------------/8-----8-8-----8-8-----8-8/--|
E||--1-----1-1-----1-1-----1-1---------------------------------|

G||--------------------------------------------------------------------||
D||--------------------------------------------------------------------||
A||--3-----3-3/-----10-----10-10\-----7-----7-5-----5-3-----3-2-----2--||
E||--------------------------------------------------------------------||

---

G||------------------------------------------------------------|
D||------------------------------------------------------------|
A||-------------------------------/8-----8-8-----8-8-----8-8/--|
E||--1-----1-1-----1-1-----1-1---------------------------------|

G||----------------------------------------------------------||
D||----------------------------------------------------------||
A||--3-----3-3/-----10-----10-10\-----7-----------11-----12--||
E||-----------------------------------------7----------------||
                                        until..."Said the...
G||------------------------------------------|------------------------|-----|
D||------------------------------------------|------------------------|-----|
A||-10-----10-10-----10-10-----10-10-----10--|--15----15----15----19--|-19--|
E||------------------------------------------|------------------------|-----|


Verse

  ...be so hard? ...Waiting for
G||------|-------|---------------------|
D||------|-------|---------------------|
A||--19--|-------|--17h19----17h19p17--|
E||------|-------|---------------------|

G||------|------------------------------|------------------------------|
D||------|------------------------------|------------------------------|
A||--14--|--15-15-15-15-15-15-15-15-15--|--15-15-15-15-15-15-15-15-15--|
E||------|------------------------------|------------------------------|

G||------------------------------|------------------------------|
D||------------------------------|------------------------------|
A||--14-14-14-14-14-14-14-14-14--|--12-12-12-12-12-12-12-12-14--|
E||------------------------------|------------------------------|

G||-----------------------------------|
D||-----------------------------------|
A||--15-15-15-(10)/15-15-15-15-15-15--|
E||-----------------------------------|

G||----------------------------------------------------------------|
D||----------------------------------------------------12-12-14-14-|
A||--15--------------------(9)/14-14-14-14-14-14-14-14-------------|
E||-----(15)\8-8-8-8-7-7-7-----------------------------------------|

     (galloping...)
G||---------------------------------------------------|
D||---------------------------------------------------|
A||--15-15-15-(10)/15-15-15-15-15-15-15-15-10---10----|
E||-------------------------------------------8----8--|

G||-------------------------------------------|
D||-------------------------------------------|
A||-------------------------------------------|
E||--7-7-7-7-7-7-7-7-15----14-14-14-14-14-14--|

G||--------------------------------------------------||
D||--------------------------------------------------||
A||--5-5-5-5-5-5-5-5--/17-17-17-17-17h15---17p15h17--||
E||-------------------------------------17-----------||

G||---------------------------||
D||---------------------------||  x2
A||---------------------------||
E||--15-15-15-15-15-15-15-15--||

G||-----------------------------------|
D||-----------------------------------|
A||--12---12-12---12-12---10-12---17--|
E||-----------------------------------|

G||------------------------------------|
D||------------------------------------|
A||--19---19-19--------19---19-19------|
E||---------------17----------------17-|

G||------------------------------------------------|
D||--------------------------17-19----17h19----19--|
A||--19---19-19---17---17h19----------------19-----|
E||------------------------------------------------|


Chorus

G||------------------------------------------------------------|
D||------------------------------------------------------------|
A||-------------------------------/8-----8-8-----8-8-----8-8/--|
E||--1-----1-1-----1-1-----1-1---------------------------------|

G||--------------------------------------------------------------------||
D||--------------------------------------------------------------------||  x3
A||--3-----3-3/-----10-----10-10\-----7-----7-5-----5-3-----3-2-----2--||
E||--------------------------------------------------------------------||

---

G||------------------------------------------------------------|
D||------------------------------------------------------------|
A||-------------------------------/8-----8-8-----8-8-----8-8/--|
E||--1-----1-1-----1-1-----1-1---------------------------------|

G||--------------------------------------------------------------||
D||----------------------------------------------------------17--||
A||--17-----17-17/-----22-----22-22\--------------17----19-------||
E||--------------------------------------17h19h20----------------||

---

G||------------------------------------------------------------|
D||------------------------------------------------------------|
A||-------------------------------/8-----8-8-----8-8-----8-8/--|
E||--1-----1-1-----1-1-----1-1---------------------------------|

G||----------------------------------------------------------||
D||----------------------------------------------------------||
A||--3-----3-3/-----10-----10-10\-----7-----------11-----12--||
E||-----------------------------------------7----------------||

G||---------------------------------------|---------------------------------|
D||---------------------------------------|---------------------------------|
A||-10-----10-10-----10-10----10-10----10-|---------------------------------|
E||---------------------------------------|-9-----9-9-----9-9-----9-9-----9-|

G||-------------------------------------|-----------------------------------|
D||-------------------------------------|-----------------------------------|
A||-10----10-10----10-10----10-10----10-|-15---15-15---15-15----15-15----15-|
E||-------------------------------------|-----------------------------------|

G||------|
D||--14--|
A||------|
E||------|


Verse

  ...while they may depending
G||----------------|-----------------------------------------|
D||--12h14---------|--12--------------10----9----/14---------|
A||----------------|----------12-9-10------------------------|
E||----------------|-----------------------------------------|

  ...the only one who's
G||------------------------------|
D||--12h14-12-14----14--/12--10--|
A||------------------------------|
E||------------------------------|

G||-------------------|-----------------------|
D||-------------------|-----------------------|
A||-------------------|----------10-10-10-10--|
E||--8-8-8-8-8-8-8-8--|--8-8-8-8--------------|

G||---------------------|-------------------|
D||--------------10-10--|--9-9-7-7-7-7-7h9--|
A||---------------------|-------------------|
E||--7-7-7-7-7-7--------|-------------------|

G||-------------------|---------------------------|
D||-------------------|---------------------------|
A||-------------------|--10-10-10-10-10-10-10-10--|
E||--8-8-8-8-8-8-8-8--|---------------------------|

G||-------------------|-----------------------|
D||-------------------|--10-10-10-10-9-9-9-9--|
A||-------------------|-----------------------|
E||--7-7-7-7-7-7-7-7--|-----------------------|

G||-------------------|------------------------------|
D||-------------------|------------------------------|
A||-------------------|--19-19-19-19-17h19p17-17-15--|
E||--8-8-8-8-8-8-8-8--|------------------------------|


G||------------------------------|----------------------------|
D||------------------------------|----------------------------|
A||--14-14-14-14-14-14-14--------|--14-14-14-------14-14------|
E||-----------------------12h14--|-----------12h14-------7-7--|


G||-------------------|---------------------|
D||-------------------|---------------------|
A||-------------------|------------10-10----|
E||--8-8-8-8-8-8-8-8--|--8-8-8-8-8-------8--|

G||-------------------|---------------------------|
D||-------------------|---------------------------|
A||-------------------|--14-14-14-14-14-14-14-14--|
E||--7-7-7-7-7-7-7-7--|---------------------------|

G||---------------------------|---------------------------|
D||---------------------------|---------------------------|
A||--15-15-15-15-15-15-15-15--|--15-15-15-15-15-15-15-15--|
E||---------------------------|---------------------------|

G||-------------------|---------------------------|
D||-------------------|---------------------------|
A||-------------------|--14-14-14-14-14-14-14-14--|
E||--7-7-7-7-7-7-7-7--|---------------------------|

G||---------------------------|-----------------------------|
D||---------------------------|-----12-12-12-12-12------10--|
A||---------------------------|--12----------------10h12----|
E||--10-10-10-10-10-10-10-10--|-----------------------------|

G||---------------------------|---------------------------|
D||---------------------------|---------------------------|
A||--10-10-10-10-10-10-10-10--|--10-10-10-10-10-10-10-10--|
E||---------------------------|---------------------------|

G||---------------------------|---------------------------|
D||---------------------------|---------------------------|
A||--12-12-12-12-12-12-12-12--|--12-12-12-12-12-12-12-12--|
E||---------------------------|---------------------------|

G||----------------------------------------|
D||-----------------19-19-19-19--17----19--|
A||--19-19-19-19-19-----------------19-----|
E||----------------------------------------|


Chorus

G||------------------------------------------------------------|
D||------------------------------------------------------------|
A||-------------------------------/8-----8-8-----8-8-----8-8/--|
E||--1-----1-1-----1-1-----1-1---------------------------------|


G||--------------------------------------------------------------------||
D||--------------------------------------------------------------------||  x3
A||--3-----3-3/-----10-----10-10\-----7-----7-5-----5-3-----3-2-----2--||
E||--------------------------------------------------------------------||

---

G||------------------------------------------------------------|
D||------------------------------------------------------------|
A||-------------------------------/8-----8-8-----8-8-----8-8/--|
E||--1-----1-1-----1-1-----1-1---------------------------------|


G||-----------------------------------|
G||-----------------------------------|
A||--3-----3-3/-----10-----10-10\-----|
E||-----------------------------------|

---

G||------------------------------------------------------------|
D||------------------------------------------------------------|
A||-------------------------------/8-----8-8-----8-8-----8-8/--|
E||--1-----1-1-----1-1-----1-1---------------------------------|


G||----------------------------------------------------------||
D||----------------------------------------------------------||
A||--3-----3-3/-----10-----10-10\-----7-----------11-----12--||
E||-----------------------------------------7----------------||

---

G||---------------------------------------|-------------------------------|
D||---------------------------------------|-------------------------------|
A||--10----10-10----10-10----10-10----10--|-------------------------------|
E||---------------------------------------|--9----9-9----9-9----9-9----9--|


G||---------------------------------------|
D||---------------------------------------|
A||--10----10-10----10-10----10-10----10--|
E||---------------------------------------|

G||---------------------------------------|------|
D||---------------------------------------|--14--|
A||--15---15---15-15---15-15---15---------|------|
E||--------------------------------13h15--|------|





Comments


Popular Tame Impala tabs & chords
Elephant 2 Bass Tabs
Half Full Glass Of Wine Bass Tabs
Music To Walk Home By Bass Tabs
She Just Wont Believe Me Chords
I Dont Really Mind Tabs
Jam Tabs
My Lover Mother Nature Tabs
Why Wont You Make Up Your Mind 2 Tabs
Alter Ego Ukulele
Suns Coming Up Ukulele


Song lyrics



↑ Back to top | Tablatures and chords are parodies/interpretations of the original songs. You may use it for private study, scholarship, research or language learning purposes only
© 2014 AZChords.com Contact us | Privacy policy | DMCA | Add/correct tabs | Request tabs | Top 50 tabs