» » »

Tame Impala, Desire Be Desire Go Bass tabs (ver.1)

Artists:  A B C D E F G H I J K L M N O P Q R S T U V W X Y Z # 

Desire Be Desire Go Bass tabs (ver.1)

Tame Impala Tabs
Rating:
0/5 (0 votes)
Desire Be Desire Go lessons Tabs too difficult? Try these video lessons and learn fast
                
Allbum: InnerSpeaker



In the treble passage I guess Nick uses a octaver pedal because at a certain point 
you can hear 2 basses. That or it's just the studio production f**kin' with our ears.

Verse
         (I don't know...)
G||--------|-------------------------------------------------|
D||--------|-------------------------------------------------|
A||--wait--|-------9h11--99--11.11--------9h11-9h11----------|
E||--------|---9h11-----------------11.11------------11--9---|


G||---------------------------------------|
D||---------------------------------------|
A||---99--11.11--------9h11-9h11------8---|
E||--------------11.11------------11------|


G||-------------------------------------------|
D||-----------------------------------16h18---|
A||---99--11.11--------9h11-9h11--------------|
E||--------------11.11------------11----------|


G||--------------------------------------------------------------------|
D||---16-16----16h18-16h18-16-------16h18-18-16h18-16----------16h18---|
A||--------------------------18.18--------------------18--16h18--------|
E||--------------------------------------------------------------------|


G||------------------------------------------------------------|
D||---16-16----16h18-16h18-16----------------------------------|
A||--------------------------18.18--16h18-18-16h18-16----------|
E||---------------------------------------------------18--16---|


G||-----------------------------------------------------------------|
D||---16-16----16h18-16h18-16-------16h18-18-16h18-16---------------|
A||--------------------------18.18--------------------18--16---13---|
E||-----------------------------------------------------------------|


Chorus

--1

G||---------------14---12---------------------------|
D||----------12-------------15---12---10.10.12h14---|
A||---10-10-----------------------------------------|
E||-------------------------------------------------|

G||---------------14---12-----------------------|
D||----------12-----------------5---------------|
A||---10-10-----------------6-6-----8-8-10h12---|
E||---------------------------------------------|

--2

G||---------------14---12---------------------------|
D||----------12-------------15---12---10.10.12h14---|
A||---10-10-----------------------------------------|
E||-------------------------------------------------|

G||---------------14---12--------------------------|
D||----------12-----------------5-------------11---|
A||---10-10-----------------6-6-----8-8-10h12------|
E||------------------------------------------------|


Verse

G||--------|----------------------|
D||--------|----------------------|
A||--wait--|---9h11-9h11----------|
E||--------|--------------11--9---|


G||--------------------------------------|
D||--------------------------------------|
A||---99--11.11--------9h11-9h11---------|
E||-------------11.11------------11--9---|


G||---------------------------------------|
D||---------------------------------------|
A||---99--11.11--------9h11-9h11------8---|
E||--------------11.11------------11------|


G||-------------------------------------------|
D||-----------------------------------16h18---|
A||---99--11.11--------9h11-9h11--------------|
E||--------------11.11------------11----------|


G||--------------------------------------------------------------------|
D||---16-16----16h18-16h18-16-------16h18-18-16h18-16----------16h18---|
A||--------------------------18.18--------------------18--16h18--------|
E||--------------------------------------------------------------------|


G||------------------------------------------------------------|
D||---16-16----16h18-16h18-16----------------------------------|
A||--------------------------18.18--16h18-18-16h18-16----------|
E||---------------------------------------------------18--16---|


G||-----------------------------------------------------------------|
D||---16-16----16h18-16h18-16-------16h18-18-16h18-16---------------|
A||--------------------------18.18--------------------18--16---13---|
E||-----------------------------------------------------------------|


Chorus

--1

G||---------------14---12---------------------------|
D||----------12-------------15---12---10.10.12h14---|
A||---10-10-----------------------------------------|
E||-------------------------------------------------|

G||---------------14---12-----------------------|
D||----------12-----------------5---------------|
A||---10-10-----------------6-6-----8-8-10h12---|
E||---------------------------------------------|

--2

G||---------------14---12---------------------------|
D||----------12-------------15---12---10.10.12h14---|
A||---10-10-----------------------------------------|
E||-------------------------------------------------|

G||---------------14---12--------------------------|
D||----------12-----------------5-------------11---|
A||---10-10-----------------6-6-----8-8-10h12------|
E||------------------------------------------------|


                                 ...wait for it...
G||--------|--------------------------------------|
D||--------|--------------------------------------|
A||--wait--|---9h11-9h11--------------------------|
E||--------|--------------11--9-------------------|


Solo

           
G||---------------------------------------------------------------------|
D||---------------------------------------------------------------------|
A||---6h8-8-8-8-8-8-6-6h8-8-8-8-8-8-8-8-8-8-8-8-8-8-8 6h8-8-8-8-8-8-8---|
E||---------------------------------------------------------------------|


G||-------|
D||-------| Just mess around in Ab, play with the 5ths and 8ths and your your way.
A||---6---| 
E||-------|


Verse


G||--------------------------------------|
D||--------------------------------------|
A||---99--11.11--------9h11-9h11---------|
E||-------------11.11------------11--9---|


G||---------------------------------------|
D||---------------------------------------|
A||---99--11.11--------9h11-9h11------8---|
E||--------------11.11------------11------|


G||---------------------------------------------|
D||---------------------------------------------|
A||---99--11.11--------9h11-9h11---------9h11---|
E||-------------11.11------------11--9h11-------|


G||----------------------------------------|
D||-----------------------------------15---|
A||---99--11.11--------9h11-9h11-----------|
E||--------------11.11------------11-------|


G||------------------------------------------------------------||
D||---16-16----16h18-16h18-16----------------------------------||
A||--------------------------18.18--16h18-18-16h18-16----------||
E||---------------------------------------------------18--16---||

                                                                          x3
G||--------------------------------------------------------------------||
D||---16-16----16h18-16h18-16-------16h18-18-16h18-16----------16h18---||
A||--------------------------18.18--------------------18--16h18--------||
E||--------------------------------------------------------------------||


Then mess aroud with the verse line until it fades out.
            

comments powered by Disqus
↑ Back to top | Tame Impala Bass for Desire Be Desire Go. Lyrics for acoustic guitar and electric guitar. Tablatures and chords are parodies/interpretations of the original songs. You may use it for private study, scholarship, research or language learning purposes only