>
 >
Desire Be Desire Go 1

Desire Be Desire Go 1 Guitar Tabs

Tame Impala - Desire Be Desire Go 1 chords, tabs, tablatures, lyrics

Guitar lessons | Add/correct | Request | Top 50 tabs Artists:  A B C D E F G H I J K L M N O P Q R S T U V W X Y Z 0-9

Desire Be Desire Go 1 Guitar Tabs – Tame Impala

CD, Sheet music, Poster

Do you like Desire Be Desire Go 1? Share with your friends now
Bass TabsBass Tabs v2TabsTabs v2Tabs v3
Desire Be Desire Go - Tame Impala

Intro/Verse Riff
E------------------------------------|
B------------------------------------|
G------------------------------------|
D-11-13--8--4h6--4h6p4--------------|
A-9--11--6-------------6-6-4--------|
E-----------------------------------|

Feel it come
I don't know how long it's gonna stay with me
I'll let desire be
Desire go

Pre-chorus
E--------------------------------------|
B--------------------------------------|
G------------------------------10--7---|
D-11-13--8--4h6--4h6p4--------10--8---|
A-9--11--6-------------6-6-4--8---8---|
E---------------------------------6---|

Dare I face the real world

Chorus
E------3------------------6---------8-----|
B------3------------------6---------8-----|
G------3------------------7---------9-----|
D-5-5-5--------------8-8-8---10-10-10----|
A-5-5-5--------------8-8-8---10-10-10----|
E-3-3-3---3h5-3h5-3--6-6-6---8--8--8-----|

Everyday
Back and forth
What's it for?
What's it for?
Back and forth
Everyday

Everyday
Back and forth
What's it for
I don't know
I'll get out, won't have to...

E--4~-|
B--4~-|
G--5~-|
D-6~-|
A-6~-|
E-4~-|

Check my watch

I don't have the verve to belong to this dead side
Why I ever tried
I don't know 

The solo is the key of F





Comments


Popular Tame Impala tabs & chords
Apocalypse Dreams Bass Tabs
Feels Like We Only Go Backwards Chords
Suns Coming Up Chords
Jeremys Storm Tabs
Keep On Lying Tabs
Runaway Houses City Clouds Intro Tabs
Runway Houses City Clouds Tabs
Slide Through My Fingers Tabs
The Sun Tabs
Vital Signs Tabs


Song lyrics



↑ Back to top | Tablatures and chords are parodies/interpretations of the original songs. You may use it for private study, scholarship, research or language learning purposes only
© 2014 AZChords.com Contact us | Privacy policy | DMCA | Add/correct tabs | Request tabs | Top 50 tabs