>
 >
30-30/150

30-30/150 Guitar Tabs

Stone  Sour - 30-30/150 chords, tabs, tablatures, lyrics

Guitar lessons | Add/correct | Request | Top 50 tabs Artists:  A B C D E F G H I J K L M N O P Q R S T U V W X Y Z 0-9

30-30/150 Guitar Tabs – Stone Sour

CD, Sheet music, Poster

Do you like 30-30/150? Share with your friends now
Bass TabsBass Tabs v2Bass Tabs v3TabsTabs v2Tabs v3

i hope this tab turns our properly because it is pretty accurate


       PM PM   PM   PM     PM     PM     PM PM    
       S  S  S S  S S  S S S  S S S  S S S  S   3x
C#||--------------------------------------------||
G#||--------------------------------------------||
E ||*------------------------------------------*||
B ||*------------------------------------------*||
F#||---0--0----0----0------0------0------0--0---||
B ||---0--0----0----0------0------0------0--0---||


  PM PM   PM   PM     PM     PM     PM                          
  S  S  S S  S S  S S S  S S S  S S S  S    Q    H        Q     
-----------------------------------------|---------------------|
-----------------------------------------|---------------------|
-----------------------------------------|---------------------|
-----------------------------------------|---------------------|
--0--0----0----0------0------0------0----|-------0--------L----|
--0--0----0----0------0------0------0----|-------0--------L----|


   T  T  T  T  T  T  T  T  T  T T T T T T T T T T T T T T T T T T T T T T T  
----------------------------------------------------------------------------|
----------------------------------------------------------------------------|
----------------------------------------------------------------------------|
----------------------------------------------------------------------------|
--------------12-12---------------------------------------------------------|
--12-12-13-13-------13-13-12-12-0-0-0-0-0-0-3-3-0-0-3-3-0-0-1-1-0-0-1-1-0-0-|


   T  T  T  T  T  T  T  T  T  T T T T T T T T T T T T T T T T T T T T T T T  
----------------------------------------------------------------------------|
----------------------------------------------------------------------------|
----------------------------------------------------------------------------|
----------------------------------------------------------------------------|
--------------12-12---------------------------------------------------------|
--12-12-13-13-------13-13-12-12-0-0-0-0-0-0-3-3-0-0-3-3-0-0-1-1-0-0-1-1-0-0-|


   T  T  T  T  T  T  T  T  T  T T T T T T T T T T T T T T T T T T T T T T T  
----------------------------------------------------------------------------|
----------------------------------------------------------------------------|
----------------------------------------------------------------------------|
----------------------------------------------------------------------------|
--------------12-12---------------------------------------------------------|
--12-12-13-13-------13-13-12-12-0-0-0-0-0-0-3-3-0-0-3-3-0-0-1-1-0-0-1-1-0-0-|


   T  T  T  T  T  T  T  T  T  T T T T T T T T T T T T T T T T T T T T T T T  
----------------------------------------------------------------------------|
----------------------------------------------------------------------------|
----------------------------------------------------------------------------|
----------------------------------------------------------------------------|
--------------12-12---------------------------------------------------------|
--12-12-13-13-------13-13-12-12-0-0-0-0-0-0-3-3-0-0-3-3-0-0-1-1-0-0-1-1-0-0-|


            PM PM                                
    S S S S T  T  S S S S S S S T T T T T T T T  
|-----------------------------------------------|
|-----------------------------------------------|
|*----------------------------------------------|
|*----------------------------------------------|
|-----------------------------------------------|
|---0---0---0--0--0---0---0-0---1-1-0-0-1-1-3-3-|


          PM PM                                  
  S S S S T  T  S S S S S S S T T T T T T T T    
-----------------------------------------------||
-----------------------------------------------||
----------------------------------------------*||
----------------------------------------------*||
-----------------------------------------------||
--0---0---0--0--0---0---0-0---6-6-5-5-3-3-5-5--||


  S S S S S S S S S S S S T T T T T T T T  
------------------------------------------|
------------------------------------------|
------------------------------------------|
------------------------------------------|
--5---5---5-5---5---5-5-------------------|
--5---5---5-5---5---5-5---6-6-5-5-6-6-8-8-|


  S S S S S S S S S S S S T T T T T T T T  
------------------------------------------|
------------------------------------------|
------------------------------------------|
------------------------------------------|
--5---5---5-5---5---5-5-------------------|
--5---5---5-5---5---5-5---8-8-6-6-5-5-6-6-|


          PM PM                                
  S S S S T  T  S S S S S S S T T T T T T T T  
----------------------------------------------|
----------------------------------------------|
----------------------------------------------|
----------------------------------------------|
----------------------------------------------|
--0---0---0--0--0---0---0-0---1-1-0-0-1-1-3-3-|


          PM PM                                
  S S S S T  T  S S S S S S S T T T T T T T T  
----------------------------------------------|
----------------------------------------------|
----------------------------------------------|
----------------------------------------------|
----------------------------------------------|
--0---0---0--0--0---0---0-0---1-1-0-0-1-1-0-0-|


                    PM   PM PM   PM PM   PM PM        
    T T T T T T T T S  S S  S  S S  S  S S  S  S S    
|---------------------------------------------------||
|---------------------------------------------------||
|*-------------------------------------------------*||
|*-------------------------------------------------*||
|-------------------0--5-0--0--5-0--0--5-0--0--3-5--||
|---6-6-5-5-6-6-5-5-0--5-0--0--5-0--0--5-0--0--3-5--||


                  PM   PM PM   PM PM   PM PM      
  T T T T T T T T S  S S  S  S S  S  S S  S  S S  
-------------------------------------------------|
-------------------------------------------------|
-------------------------------------------------|
-------------------------------------------------|
------------------0--5-0--0--5-0--0--5-0--0--3-5-|
--6-6-5-5-6-6-5-5-0--5-0--0--5-0--0--5-0--0--3-5-|


                  PM   PM PM   PM PM   PM PM PM PM PM PM  
  T T T T T T T T S  S S  S  S S  S  S S  S  T  T  T  T   
---------------------------------------------------------|
---------------------------------------------------------|
---------------------------------------------------------|
---------------------------------------------------------|
------------------0--5-0--0--5-0--0--5-0--0--0--0--0--0--|
--6-6-5-5-6-6-5-5-0--5-0--0--5-0--0--5-0--0--0--0--0--0--|


    PM PM                        PM PM                        
    S  S  Q    E  E  S Q    S    S  S  Q    E  E  S Q    S    
|-----------------------------|-----------------------------||
|-----------------------------|-----------------------------||
|*----------------------------|----------------------------*||
|*--------7----L--5--L--------|----------------5--L-8----L-*||
|---0--0--5----L--3--L-5----L-|--5--5--5----L--3--L-6----L--||
|---0--0---------------5----L-|--5--5--5----L---------------||


   PM PM                        PM PM                                  
   S  S  Q    E  E  S Q    S    S  S  Q    E  E  S Q    S              
-----------------------------|-----------------------------||----|----|
-----------------------------|-----------------------------||----|----|
*----------------------------|----------------------------*||----|----|
*--------7----L--5--L--------|----------------5--L-8----L-*||----|----|
---0--0--5----L--3--L-5----L-|--5--5--5----L--3--L-6----L--||----|----|
---0--0---------------5----L-|--5--5--5----L---------------||----|----|


   T  T  T  T  T  T  T  T  T  T T T T T T T T T T T T T T T T T T T T T T T  
----------------------------------------------------------------------------|
----------------------------------------------------------------------------|
----------------------------------------------------------------------------|
----------------------------------------------------------------------------|
--------------12-12---------------------------------------------------------|
--12-12-13-13-------13-13-12-12-0-0-0-0-0-0-3-3-0-0-3-3-0-0-1-1-0-0-1-1-0-0-|


   T  T  T  T  T  T  T  T  T  T T T T T T T T T T T T T T T T T T T T T T T  
----------------------------------------------------------------------------|
----------------------------------------------------------------------------|
----------------------------------------------------------------------------|
----------------------------------------------------------------------------|
--------------12-12---------------------------------------------------------|
--12-12-13-13-------13-13-12-12-0-0-0-0-0-0-3-3-0-0-3-3-0-0-1-1-0-0-1-1-0-0-|


            PM PM                                
    S S S S T  T  S S S S S S S T T T T T T T T  
|-----------------------------------------------|
|-----------------------------------------------|
|*----------------------------------------------|
|*----------------------------------------------|
|-----------------------------------------------|
|---0---0---0--0--0---0---0-0---1-1-0-0-1-1-3-3-|


          PM PM                                  
  S S S S T  T  S S S S S S S T T T T T T T T    
-----------------------------------------------||
-----------------------------------------------||
----------------------------------------------*||
----------------------------------------------*||
-----------------------------------------------||
--0---0---0--0--0---0---0-0---6-6-5-5-3-3-5-5--||


  S S S S S S S S S S S S T T T T T T T T  
------------------------------------------|
------------------------------------------|
------------------------------------------|
------------------------------------------|
--5---5---5-5---5---5-5-------------------|
--5---5---5-5---5---5-5---6-6-5-5-6-6-8-8-|


  S S S S S S S S S S S S T T T T T T T T  
------------------------------------------|
------------------------------------------|
------------------------------------------|
------------------------------------------|
--5---5---5-5---5---5-5-------------------|
--5---5---5-5---5---5-5---8-8-6-6-5-5-6-6-|


          PM PM                                
  S S S S T  T  S S S S S S S T T T T T T T T  
----------------------------------------------|
----------------------------------------------|
----------------------------------------------|
----------------------------------------------|
----------------------------------------------|
--0---0---0--0--0---0---0-0---1-1-0-0-1-1-3-3-|


          PM PM                                
  S S S S T  T  S S S S S S S T T T T T T T T  
----------------------------------------------|
----------------------------------------------|
----------------------------------------------|
----------------------------------------------|
----------------------------------------------|
--0---0---0--0--0---0---0-0---1-1-0-0-1-1-0-0-|


                    PM   PM PM   PM PM   PM PM        
    T T T T T T T T S  S S  S  S S  S  S S  S  S S    
|---------------------------------------------------||
|---------------------------------------------------||
|*-------------------------------------------------*||
|*-------------------------------------------------*||
|-------------------0--5-0--0--5-0--0--5-0--0--3-5--||
|---6-6-5-5-6-6-5-5-0--5-0--0--5-0--0--5-0--0--3-5--||


                  PM   PM PM   PM PM   PM PM      
  T T T T T T T T S  S S  S  S S  S  S S  S  S S  
-------------------------------------------------|
-------------------------------------------------|
-------------------------------------------------|
-------------------------------------------------|
------------------0--5-0--0--5-0--0--5-0--0--3-5-|
--6-6-5-5-6-6-5-5-0--5-0--0--5-0--0--5-0--0--3-5-|


                  PM   PM PM   PM PM   PM PM PM PM PM PM  
  T T T T T T T T S  S S  S  S S  S  S S  S  T  T  T  T   
---------------------------------------------------------|
---------------------------------------------------------|
---------------------------------------------------------|
---------------------------------------------------------|
------------------0--5-0--0--5-0--0--5-0--0--0--0--0--0--|
--6-6-5-5-6-6-5-5-0--5-0--0--5-0--0--5-0--0--0--0--0--0--|


    PM PM                        PM PM                        
    S  S  Q    E  E  S Q    S    S  S  Q    E  E  S Q    S    
|-----------------------------|-----------------------------||
|-----------------------------|-----------------------------||
|*----------------------------|----------------------------*||
|*--------7----L--5--L--------|----------------5--L-8----L-*||
|---0--0--5----L--3--L-5----L-|--5--5--5----L--3--L-6----L--||
|---0--0---------------5----L-|--5--5--5----L---------------||


   PM PM                        PM PM                        
   S  S  Q    E  E  S Q    S    S  S  Q    E  E  S Q    S    
-----------------------------|-----------------------------||
-----------------------------|-----------------------------||
*----------------------------|----------------------------*||
*--------7----L--5--L--------|----------------5--L-8----L-*||
---0--0--5----L--3--L-5----L-|--5--5--5----L--3--L-6----L--||
---0--0---------------5----L-|--5--5--5----L---------------||


  PM PM   PM   PM     PM     PM     PM PM  
  S  S  S S  S S  S S S  S S S  S S S  S   
------------------------------------------|
------------------------------------------|
------------------------------------------|
------------------------------------------|
--0--0----0----0------0------0------0--0--|
--0--0----0----0------0------0------0--0--|


  PM PM   PM   PM     PM     PM     PM PM                      
  S  S  S S  S S  S S S  S S S  S S S  S     W                 
------------------------------------------|-------------------|
------------------------------------------|-------------------|
------------------------------------------|--7----------------|
------------------------------------------|-------------------|
--0--0----0----0------0------0------0--0--|--5----------------|
--0--0----0----0------0------0------0--0--|-------------------|


  E  E    E   H         E       E   H         Q     E   
----------------------------|--------------------------|
----------------------------|--------------------------|
--8--8S--10--10---------LS--|--14--12---------L----10--|
----------------------------|--------------------------|
--6--6S---8---8---------LS--|--12--10---------L-----8--|
----------------------------|--------------------------|


   E   E   H         Q       W                   E  E    E   H         E    
--------------------------|-------------------|----------------------------|
--------------------------|-------------------|----------------------------|
--10--12--12---------L----|--7----------------|--8--8S--10--10---------LS--|
--------------------------|-------------------|----------------------------|
---8--10--10---------L----|--5----------------|--6--6S---8---8---------LS--|
--------------------------|-------------------|----------------------------|


   E   H         Q     E      E   E   H         Q     
--------------------------|--------------------------|
--------------------------|--------------------------|
--14--12---------L----10--|--10--12--12---------L----|
--------------------------|--------------------------|
--12--10---------L-----8--|---8--10--10---------L----|
--------------------------|--------------------------|


     S S  S  S S  S S  S S  S  S S S S S S    
|-------------------------------------------||
|-------------------------------------------||
|*-----------------------------------------*||
|*-----------------------------------------*||
|-------------------------------------------||
|---12-0-12-13-0-12-0-13-0-13-12-0-8-7-5-7--||


   S S  S S  S S  S  S S  S  S S S S S S  
-----------------------------------------|
-----------------------------------------|
-----------------------------------------|
-----------------------------------------|
-----------------------------------------|
--16-0-16-0-17-0-16-17-0-17-16-0-8-7-5-7-|


   S S  S S  S S  S  S S  S  S S S S S S  
-----------------------------------------|
-----------------------------------------|
-----------------------------------------|
-----------------------------------------|
--12---12---13---12-13---13-12---8-7-5-7-|
--12-0-12-0-13-0-12-13-0-13-12-0-8-7-5-7-|


            PM PM                                
    S S S S T  T  S S S S S S S T T T T T T T T  
|-----------------------------------------------|
|-----------------------------------------------|
|*----------------------------------------------|
|*----------------------------------------------|
|-----------------------------------------------|
|---0---0---0--0--0---0---0-0---1-1-0-0-1-1-3-3-|


          PM PM                                  
  S S S S T  T  S S S S S S S T T T T T T T T    
-----------------------------------------------||
-----------------------------------------------||
----------------------------------------------*||
----------------------------------------------*||
-----------------------------------------------||
--0---0---0--0--0---0---0-0---6-6-5-5-3-3-5-5--||


  S S S S S S S S S S S S T T T T T T T T  
------------------------------------------|
------------------------------------------|
------------------------------------------|
------------------------------------------|
--5---5---5-5---5---5-5-------------------|
--5---5---5-5---5---5-5---6-6-5-5-6-6-8-8-|


  S S S S S S S S S S S S T T T T T T T T  
------------------------------------------|
------------------------------------------|
------------------------------------------|
------------------------------------------|
--5---5---5-5---5---5-5-------------------|
--5---5---5-5---5---5-5---8-8-6-6-5-5-6-6-|


          PM PM                                
  S S S S T  T  S S S S S S S T T T T T T T T  
----------------------------------------------|
----------------------------------------------|
----------------------------------------------|
----------------------------------------------|
----------------------------------------------|
--0---0---0--0--0---0---0-0---1-1-0-0-1-1-3-3-|


          PM PM                                
  S S S S T  T  S S S S S S S T T T T T T T T  
----------------------------------------------|
----------------------------------------------|
----------------------------------------------|
----------------------------------------------|
----------------------------------------------|
--0---0---0--0--0---0---0-0---1-1-0-0-1-1-0-0-|


                    PM   PM PM   PM PM   PM PM        
    T T T T T T T T S  S S  S  S S  S  S S  S  S S    
|---------------------------------------------------||
|---------------------------------------------------||
|*-------------------------------------------------*||
|*-------------------------------------------------*||
|-------------------0--5-0--0--5-0--0--5-0--0--3-5--||
|---6-6-5-5-6-6-5-5-0--5-0--0--5-0--0--5-0--0--3-5--||


                                                                 PM PM PM PM  
  S S S S S S S S S S S S S S S S    S S S S S S S S S S S S S S T  T  T  T   
----------------------------------|------------------------------------------|
----------------------------------|------------------------------------------|
----------------------------------|------------------------------------------|
----------------------------------|------------------------------------------|
----------------------------------|------------------------------------------|
--6-5-6-5-0-5-0-0-0-5-0-0-5-0-3-5-|--6-5-6-5-0-5-0-0-0-5-0-0-5-0-0--0--0--0--|


    PM PM                        PM PM                        
    S  S  Q    E  E  S Q    S    S  S  Q    E  E  S Q    S    
|-----------------------------|-----------------------------||
|-----------------------------|-----------------------------||
|*----------------------------|----------------------------*||
|*--------7----L--5--L--------|----------------5--L-8----L-*||
|---0--0--5----L--3--L-5----L-|--5--5--5----L--3--L-6----L--||
|---0--0---------------5----L-|--5--5--5----L---------------||


  PM PM                        PM PM                      
  S  S  Q    E  E  S Q    S    S  S  Q    E  E  S Q    S  
----------------------------|----------------------------|
----------------------------|----------------------------|
----------------------------|----------------------------|
--------7----L--5--L--------|----------------5--L-8----L-|
--0--0--5----L--3--L-5----L-|--5--5--5----L--3--L-6----L-|
--0--0---------------5----L-|--5--5--5----L--------------|


  PM PM                        PM PM                PM PM     
  S  S  Q    E  E  S Q    S    S  S  Q    E  E  S S S  S  E   
----------------------------|--------------------------------|
----------------------------|--------------------------------|
----------------------------|--------------------------------|
--------7----L--5--L--------|----------------5--L-8----------|
--0--0--5----L--3--L-5----L-|--5--5--5----L--3--L-6-0--0-----|
--0--0---------------5----L-|--5--5--5----L---------0--0-----|


   T  T  T  T  T  T  T  T  T  T T T T T T T T T T T T T T T T T T T T T T T  
----------------------------------------------------------------------------|
----------------------------------------------------------------------------|
----------------------------------------------------------------------------|
----------------------------------------------------------------------------|
--------------12-12---------------------------------------------------------|
--12-12-13-13-------13-13-12-12-0-0-0-0-0-0-3-3-0-0-3-3-0-0-1-1-0-0-1-1-0-0-|


   T  T  T  T  T  T  T  T  T  T T T T T T T T T T T T T T T T T T T T T T T  
----------------------------------------------------------------------------|
----------------------------------------------------------------------------|
----------------------------------------------------------------------------|
----------------------------------------------------------------------------|
--------------12-12---------------------------------------------------------|
--12-12-13-13-------13-13-12-12-0-0-0-0-0-0-3-3-0-0-3-3-0-0-1-1-0-0-1-1-0-0-|


   T  T  T  T  T  T  T  T  T  T T T T T T T T T T T T T T T T T T T T T T T  
----------------------------------------------------------------------------|
----------------------------------------------------------------------------|
----------------------------------------------------------------------------|
----------------------------------------------------------------------------|
--------------12-12---------------------------------------------------------|
--12-12-13-13-------13-13-12-12-0-0-0-0-0-0-3-3-0-0-3-3-0-0-1-1-0-0-1-1-0-0-|


   T  T  T  T  T  T  T  T  T  T T T T T T T T T T T T T T T T T T T S S   
------------------------------------------------------------------------||
------------------------------------------------------------------------||
------------------------------------------------------------------------||
------------------------------------------------------------------------||
--------------12-12-------------------------------------------------1-0-||
--12-12-13-13-------13-13-12-12-0-0-0-0-0-0-3-3-0-0-3-3-0-0-1-1-0-0-1-0-||




Duration Legend
---------------
W - whole
H - half
Q - quarter
E - 8th
S - 16th
T - 32nd
X - 64th
. - note dotted
|-n-|  - n-tuplets


Tablature Legend
----------------
L - tied note
x - dead note
g - grace note
(n) - ghost note
> - accentuded note
NH - natural harmonic
AH - artificial harmonic
TH - tapped harmonic
SH - semi harmonic
PH - pitch harmonic
h - hammer on
p - pull off
b - bend
br - bendRelease
pb - preBend
pbr - preBendRelease
brb - bendReleaseBend
\n/ - tremolo bar dip
\n - tremolo bar dive
-/n - tremolo bar Release up
/n\ - tremolo bar inverted dip
/n - tremolo bar return
-\n - tremolo bar Release down
S - shift slide
s - legato slide
/ -  slide into from below or out of upwards
\ -  slide into from above or out of downwards
~ - vibrato
W - wide vibrato
tr - trill
TP - tremolo picking
T - tapping
S - slap
P - pop
< - fade in
^ - brush up
v - brush down





Comments


Popular Stone Sour tabs & chords
Get Inside 2 Bass Tabs
Orchids Bass Tabs
Hesitate 6 Tabs
Mission Statement Tabs
Reborn 1 Tabs
Road Hog Tabs
Sillyworld Tabs
Wicked Game 2 Tabs
Anna Ukulele
Wicked Game Ukulele


Song lyrics



↑ Back to top | Tablatures and chords are parodies/interpretations of the original songs. You may use it for private study, scholarship, research or language learning purposes only
© 2014 AZChords.com Contact us | Privacy policy | DMCA | Add/correct tabs | Request tabs | Top 50 tabs