» » »

Stone Sour, Made Of Scars Tabs (ver.1)

Artists:  A B C D E F G H I J K L M N O P Q R S T U V W X Y Z # 

Made Of Scars Tabs (ver.1)

Stone Sour Tabs
 Rating:
4/5 (4 votes)
Made Of Scars lessons Tabs too difficult? Try these video lessons and learn fast
                /=slide
p=pulloff


 intro
e|----------------|
b|----------------|
g|----6/7/6-------|
d|----6/7/6-------|
a|----4/5/4-------|
d|----------------| 12x


  verse 1
e|------------------|     e|--------------------------------------------|
b|------------------|     b|--------------------------------------------|
g|------------------|     g|--------------------------------------------|
d|------------------|     d|---------------------------------6p4--------|
a|--4-4-4-4-5p4-----|     a|--4-4-4-4-5p4--------4-4-4-4-5p4------------|
d|------------------| 8x  D|--------------------------------------------|4x




Pre Chorus
e|------------------------------------|
B|------------------------------------|
g|------------------------------------|
d|--6-6-6-6-6-2-----------------------|
a|--6-6-6-6-6-2-----------------------|
d|--6-6-6-6-6-2-----------------------|4x

Chorus (same as intro)

verse 2:
pre chorus:
chorus:

Change
e|--------------------------|
b|--------------------------|
g|--4/6666/9999/6666/444----|
d|--4/6666/9999/6666/444----|
a|--2/4444/7777/4444/222----|
d|--------------------------|

well any feed back would be appreciated i will post the rest once i figure it out
            
Submit corrections

comments powered by Disqus
↑ Back to top | Stone Sour Tabs for Made Of Scars. Lyrics for acoustic guitar and electric guitar. Tablatures and chords are parodies/interpretations of the original songs. You may use it for private study, scholarship, research or language learning purposes only