» » »

Stone Sour, 30-30/150 Bass tabs (ver.1)

Artists:  A B C D E F G H I J K L M N O P Q R S T U V W X Y Z # 

30-30/150 Bass tabs (ver.1)

Stone Sour Tabs
Rating:
0/5 (0 votes)
30-30/150 lessons Tabs too difficult? Try these video lessons and learn fast
                ----------------------------------------------------------------------------
			     30/30-150 – Stone Sour
----------------------------------------------------------------------------


Tuning: Drop B

E |-----------------------------|       |------------------------|
B |-----------------------------|       |------------------------|
F#|-----------------------------|  x3   |------------------------|
B |-0-0---0-0---0---0---0-0-00--|       |-0-0---0-0---0---0---0--|

E |--------------------------------------|
B |--------------------------------------|
F#|-------12-----------------------------|  x4
B |-12-13----13-12-00000030003000100010--|

E |--------------------------------------------|
B |--------------------------------------------|
F#|--------------------------------------------|  x2
B |-0-0-000-00-000-1013---0-0-000-00-000-6535--|

E |--------------------------------------------|
B |--------------------------------------------|
F#|--------------------------------------------|
B |-5-5-555-55-555-6568---5-5-555-55-555-8656--|

E |--------------------------------------------|
B |--------------------------------------------|
F#|--------------------------------------------|
B |-0-0-000-00-000-1013---0-0-000-00-000-1010--|

E |-----------------------|
B |-----------------------|
F#|-----------------------|  x4
B |-656505-000-50500-3/5--|

E |---------------------------------------|
B |---------------------------------------|
F#|----5---55-3------------------333/666--|  x4
B |-00----------5---33-5-3-5---3----------|

No bass for 2 bars while guitar plays with flanger effect

E |--------------------------------------|
B |--------------------------------------|
F#|-------12-----------------------------|  x2
B |-12-13----13-12-00000030003000100010--|

E |--------------------------------------------|
B |--------------------------------------------|
F#|--------------------------------------------|  x2
B |-0-0-000-00-000-1013---0-0-000-00-000-6535--|

E |--------------------------------------------|
B |--------------------------------------------|
F#|--------------------------------------------|
B |-5-5-555-55-555-6568---5-5-555-55-555-8656--|

E |--------------------------------------------|
B |--------------------------------------------|
F#|--------------------------------------------|
B |-0-0-000-00-000-1013---0-0-000-00-000-1010--|

E |---------------------------------------|
B |---------------------------------------|
F#|----5---55-3------------------333/666--|  x4
B |-00----------5---33-5-3-5---3----------|

E |---------------------------------------------------|
B |---------------------------------------------------|
F#|---------------------------------------------------|
B |-0-0-0-0---0---0---0-0-00-0-0---0---0---0---0-0-0--|

E |---------|---------|---------|----------------|
B |---------|---------|---------|----------------|
F#|---------|---------|---------|----------------|  x2
B |-0-------|-1-------|-3-------|-5------6---8---|

E |-----------------------------------------|
B |-----------------------------------------|
F#|-----------------------------------------|  x4
B |-0-10-12-0-12-13-0-10-0-10-12-0-8-7-0-7--|

E |--------------------------------------------|
B |--------------------------------------------|
F#|--------------------------------------------|  x2
B |-0-0-000-00-000-1013---0-0-000-00-000-6535--|

E |--------------------------------------------|
B |--------------------------------------------|
F#|--------------------------------------------|
B |-5-5-555-55-555-6568---5-5-555-55-555-8656--|

E |--------------------------------------------|
B |--------------------------------------------|
F#|--------------------------------------------|
B |-0-0-000-00-000-1013---0-0-000-00-000-1010--|

E |-----------------------|
B |-----------------------|
F#|-----------------------|  x4
B |-656505-000-50500-3/5--|

E |---------------------------------------|
B |---------------------------------------|
F#|----5---55-3------------------333/666--|  x3
B |-00----------5---33-5-3-5---3----------|

E |----------------------------|
B |----------------------------|
F#|----5---55-3----------------|  
B |-00----------5---33-5-3-5\--|

E |--------------------------------------|
B |--------------------------------------|
F#|-------12-----------------------------|  x4
B |-12-13----13-12-00000030003000100010--|

| /  slide up
| \  slide down
| h  hammer-on
| p  pull-off
| ~  vibrato
| +  harmonic
| x  Mute note
============================================================================
            

comments powered by Disqus
↑ Back to top | Stone Sour Bass for 30-30/150. Lyrics for acoustic guitar and electric guitar. Tablatures and chords are parodies/interpretations of the original songs. You may use it for private study, scholarship, research or language learning purposes only