>
 >
30-30/150 1

30-30/150 1 Guitar Tabs

Stone  Sour - 30-30/150 1 chords, tabs, tablatures, lyrics

Guitar lessons | Add/correct | Request | Top 50 tabs Artists:  A B C D E F G H I J K L M N O P Q R S T U V W X Y Z 0-9

30-30/150 1 Guitar Tabs – Stone Sour

CD, Sheet music, Poster

Do you like 30-30/150 1? Share with your friends now
Bass TabsBass Tabs v2Bass Tabs v3TabsTabs v2Tabs v3
Atrist: Stone Sour
Guitarists: Jim Root(Rythem) Josh Rand(Lead)
Bassist: Shawn Economaki 

Ok So I have decided to totally redo my 3030-150 tab, please re-rate
this tab if you havent all ready I added baseline in it to so its good.
Yea I admit my old tab did have alot of errors so I fixed it up and now
its way more accurate. Enjoy peoples.

Becareful As the 1st verse looks very confusing becuase of the all
the writing and such, its mainly just repeated stuff, just follow
the time tags and what to do in the tabs and you should be fine.

By the way im to sure about the lyrics so have fun figuring em out!

=========================================||
------------==|30/30-150|==--------------||
=========================================||
Track: 30/30-150
Track Number: 01
Duration: 4:18
Guitar Tunning: Drop B (B F# B E G# C#)
Bass Tunning: Drop B (B F# B E)
Effects Used: Wah Wah Pedal
Techniques Used: Palm Muting, Tremelo Picking
Measures: Guitar:  Bass: 
Instruments/Musicians: Josh; Lead Guitar,
Jim; Rythem Guitar, Shawn; Bass
Song Notes: None
Tab Legend:
/ = slide up
\ = slide down 
. = Palm Mute
= = Tremelo Picking
h/p = hammer on, pull off

=======--\\\\\\\\\\\\\\\\\\\\\\\\\\\\\\\\\\\\\\\\\\\\\\\\\\\\\\\\\\\\\\\\\\
INTRO==---|================================================================
=======--//////////////////////////////////////////////////////////////////

0:00
Both Guitars
G#||-----------------------||
C#||-----------------------||
E ||-----------------------||
B ||-----------------------||
F#||-0-0--0--0---0--0--0-0-||
B ||-0-0--0--0---0--0--0-0-|| X3

Shawn - Bass
E ||-----------------------||
B ||-----------------------||
F#||-----------------------||
B ||-0-0--0--0---0--0--0-0-|| X3

--------------------------------------
0:09
Both Guitars
G#||----------------------||
C#||----------------------||
E ||----------------------||
B ||----------------------||
F#||-0-0--0--0---0--0--0--||
B ||-0-0--0--0---0--0--0--||

Shawn - Bass
E ||-----------------------||
B ||-----------------------||
F#||-----------------------||
B ||-0-0--0--0---0--0--0---|| 

0:12
Both Guitars
(Guitars Fade In)
G#||----||
C#||----||
E ||----||
B ||-0--||
F#||-0--||
B ||-0--||

-----------------------------------------
0:13
Both Guitars
*The Tremelo'd notes are picked 2x(twice)*
(After the tremelo Picked notes, play the rest of the rythem fast;
Listen to the song for speed and rythem; A Zoomed in measure
of what the riff looks like so its not all smashed together)
G#||--------------------------------------------------------||
C#||--------------------------------------------------------||
E ||--------------------------------------------------------||
B ||--------------------------------------------------------||
F#||-------13-----------------------------------------------||
B ||-12-13----13-12-3-1-0-0-3-1-0-0-3-1-0-0-1-1-0-0-1-1-0-0-|| X3
     =  =     =  =

Shawn - Bass
*The Tremelo'd notes are picked 2x(twice)*
E ||--------------------------------------------------------||
B ||--------------------------------------------------------||
F#||-------13-----------------------------------------------||
B ||-12-13----13-12-3-1-0-0-3-1-0-0-3-1-0-0-1-1-0-0-1-1-0-0-|| X4
     =  =     =  =

-----------------------------------------
0:22
*The Tremelo'd notes are picked 2x(twice)*
                                                "I am a dom-"
G#||--------------------------------------------------------||
C#||--------------------------------------------------------||
E ||--------------------------------------------------------||
B ||--------------------------------------------------------||
F#||-------13-----------------------------------------------||
B ||-12-13----13-12-3-1-0-0-3-1-0-0-3-1-0-0-1-1-0-0-1-1-0-0-|| 
     =  =     =  =

Shawn - Bass
*The Tremelo'd notes are picked 2x(twice)*                                               
E ||--------------------------------------------------------||
B ||--------------------------------------------------------||
F#||-------13-----------------------------------------------||
B ||-12-13----13-12-3-1-0-0-3-1-0-0-3-1-0-0-1-1-0-0-1-1-0-0-|| 

=======--\\\\\\\\\\\\\\\\\\\\\\\\\\\\\\\\\\\\\\\\\\\\\\\\\\\\\\\\\\\\\\\\\\
VERSE 1==---|==============================================================
=======--//////////////////////////////////////////////////////////////////

!REPEAT BOTH MEASURES FOR GUITAR AND BASS FOR A TOTAL OF 2x(Twice) PLAYED
THEN MOVE ON TO THE NEXT PART; LISTEN TO SONG FOR MORE DETAIL!
!ALSO NOTE THAT THE RIFFS ARE ZOOMED IN SO YOU CAN SEE THE INDIVIDUAL NOTES
BETTER!

0:25
Both Guitars
For all the below riffs for bass and guitar, play the numbered
patterns fast and the rythem parts slow; listen to song for the exact
rythem to it; Give all the palm muted parts of the verse a LIGHT palm mute)
*Zoomed in version of the riff*
"-inant gene, Live as I die..."
G#||-----------------------------------||
C#||-----------------------------------||
E ||-----------------------------------||
B ||-----------------------------------||
F#||-0--0--0-0-0--0-0--0---------------||
B ||-0--0--0-0-0--0-0--0-3-3-1-1-0-1-3-||
                         . . . . . . . 

Shawn - Bass
*Zoomed in version of the riff*
E ||-----------------------------------||
B ||-----------------------------------||
F#||-----------------------------------||
B ||-0--0--0-0-0--0-0--0-3-3-1-1-0-1-3-||

-----------------------------------------
0:28
*Zoomed in version of the riff*
"Never Say forever..."
G#||-------------------------------------||
C#||-------------------------------------||
E ||-------------------------------------||
B ||-------------------------------------||
F#||-0--0--0-0-0--0-0--0-----------------||
B ||-0--0--0-0-0--0-0--0-6-6-5-5-3-3-5-5-||
                         . . . . . . . .

Shawn - Bass
*Zoomed in version of the riff*
E ||-------------------------------------||
B ||-------------------------------------||
F#||-------------------------------------||
B ||-0--0--0-0-0--0-0--0-6-6-5-5-3-3-5-5-||

-----------------------------------------
0:37
Both Guitars:
*Zoomed in version of the riff*
"I try to tell you but you simply..."
G#||-----------------------------------||
C#||-----------------------------------||
E ||-----------------------------------||
B ||-----------------------------------||
F#||-5--5--5-5--5-5--5-----------------||
B ||-5--5--5-5--5-5--5-6-6-5-5-6-6-8-8-||
                       . . . . . . . . 

Shawn - Bass
*Zoomed in version of the riff*
E ||-----------------------------------||
B ||-----------------------------------||
F#||-----------------------------------||
B ||-5--5--5-5--5-5--5-6-6-5-5-6-6-8-8-||

-----------------------------------------
0:40
Both Guitars:
*Zoomed in version of the riff*
"They didn't listen so they threw you..."
G#||-----------------------------------||
C#||-----------------------------------||
E ||-----------------------------------||
B ||-----------------------------------||
F#||-5--5--5-5--5-5--5-----------------||
B ||-5--5--5-5--5-5--5-6-6-5-5-3-3-5-5-||
                       . . . . . . . .

Shawn - Bass
*Zoomed in version of the riff*
E ||-----------------------------------||
B ||-----------------------------------||
F#||-----------------------------------||
B ||-5--5--5-5--5-5--5-6-6-5-5-3-3-5-5-||

-----------------------------------------
0:43
Both Guitars
*Zoomed in version of the riff*
"Now, All do is talk..."
G#||-----------------------------------||
C#||-----------------------------------||
E ||-----------------------------------||
B ||-----------------------------------||
F#||-0--0--0-0-0--0-0--0---------------||
B ||-0--0--0-0-0--0-0--0-3-3-1-1-0-1-3-||
                         . . . . . . . 

Shawn - Bass
*Zoomed in version of the riff*
E ||-----------------------------------||
B ||-----------------------------------||
F#||-----------------------------------||
B ||-0--0--0-0-0--0-0--0-3-3-1-1-0-1-3-||

-----------------------------------------
0:46
*Zoomed in version of the riff*
"I dont want to hear your bullshit..."
G#||-------------------------------------||
C#||-------------------------------------||
E ||-------------------------------------||
B ||-------------------------------------||
F#||-0--0--0-0-0--0-0--0-----------------||
B ||-0--0--0-0-0--0-0--0-6-6-5-5-3-3-5-5-||
                         . . . . . . . .

Shawn - Bass
*Zoomed in version of the riff*
E ||-------------------------------------||
B ||-------------------------------------||
F#||-------------------------------------||
B ||-0--0--0-0-0--0-0--0-6-6-5-5-3-3-5-5-||

=======--\\\\\\\\\\\\\\\\\\\\\\\\\\\\\\\\\\\\\\\\\\\\\\\\\\\\\\\\\\\\\\\\\\
PRE CHORUS==---|===========================================================
=======--//////////////////////////////////////////////////////////////////

0:49
Both Guitars:
(Since this is a zoomed in version, use the song to find the rythem)
*Zoomed in version of the riff*
                         "This is where it beg-."
G#||-------------------------------------------||
C#||-------------------------------------------||
E ||-------------------------------------------||
B ||-------------------------------------------||
F#||-5-5-5-5-5-5-5-5-5-5-5-6--5-5-6--5-6-5-3-5-||
B ||-5-5-5-5-5-5-5-5-5-5-5-6--5-5-6--5-6-5-3-5-||
     . . . . . . . . . . .    . .  

Shawn - Bass
*Zoomed in version of the riff*
E ||-------------------------------------------||
B ||-------------------------------------------||
F#||-------------------------------------------||
B ||-5-5-5-5-5-5-5-5-5-5-5-6--5-5-6--5-6-5-3-5-||

-----------------------------------------
0:52
Both Guitars:
"-ins..."        "This Is where it ends"
G#||-------------------------------------------||
C#||-------------------------------------------||
E ||-------------------------------------------||
B ||-------------------------------------------||
F#||-5-5-5-5-5-5-5-5-5-5-5-6--5-5-6--5-6-5-3-5-||
B ||-5-5-5-5-5-5-5-5-5-5-5-6--5-5-6--5-6-5-3-5-||
     . . . . . . . . . . .    . .  

Shawn - Bass
E ||-------------------------------------------||
B ||-------------------------------------------||
F#||-------------------------------------------||
B ||-5-5-5-5-5-5-5-5-5-5-5-6--5-5-6--5-6-5-3-5-||

----------------------------------------
0:55
Both Guitars:
                             "This is where it be-"
G#||-------------------------------------------||
C#||-------------------------------------------||
E ||-------------------------------------------||
B ||-------------------------------------------||
F#||-5-5-5-5-5-5-5-5-5-5-5-6--5-5-6--5-6-5-3-5-||
B ||-5-5-5-5-5-5-5-5-5-5-5-6--5-5-6--5-6-5-3-5-||
     . . . . . . . . . . .    . .  

Shawn - Bass
E ||-------------------------------------------||
B ||-------------------------------------------||
F#||-------------------------------------------||
B ||-5-5-5-5-5-5-5-5-5-5-5-6--5-5-6--5-6-5-3-5-||

-----------------------------------------
0:58
Both Guitars:
"-gins!.."             "This Is where it ends!"
G#||-------------------------------------------||
C#||-------------------------------------------||
E ||-------------------------------------------||
B ||-------------------------------------------||
F#||-5-5-5-5-5-5-5-5-5-5-5-6--5-5-6--5-6-5-3-5-||
B ||-5-5-5-5-5-5-5-5-5-5-5-6--5-5-6--5-6-5-3-5-||
     . . . . . . . . . . .    . .  

Shawn - Bass
E ||-------------------------------------------||
B ||-------------------------------------------||
F#||-------------------------------------------||
B ||-5-5-5-5-5-5-5-5-5-5-5-6--5-5-6--5-6-5-3-5-||



=======--\\\\\\\\\\\\\\\\\\\\\\\\\\\\\\\\\\\\\\\\\\\\\\\\\\\\\\\\\\\\\\\\\\
CHORUS==---|===============================================================
=======--//////////////////////////////////////////////////////////////////

1:01
Both Guitars:
"
G#||---------------------------------------||
C#||---------------------------------------||
E ||---------------------------------------||
B ||-12---10--3--3-3--5-5---10--13--12-12--||
F#||-12---10--3--3-3--5-5---10--13--12-12--||
B ||-12---10--3--3-3--5-5---10--13--12-12--|| X2

Shawn - Bass
E ||---------------------------------------||
B ||---------------------------------------||
F#||---------------------------------------||
B ||-12---10--3--3-3--5-5---10--13--12-12--||

-----------------------------------------
1:15
Josh - Lead
" 
G#||---------------------------------------||
C#||---------------------------------------||
E ||-10---9-9-10-5-5--7-7---12--14--14-14--||
B ||-x----x-x-x--x-x--x-x---x---x---x--x---||
F#||-8----7-7-8--3-3--5-5---10--12--12-12--||
B ||---------------------------------------|| X2

Jim - Rythem
G#||---------------------------------------||
C#||---------------------------------------||
E ||---------------------------------------||
B ||-12---10--3--3-3--5-5---10--13--12-12--||
F#||-12---10--3--3-3--5-5---10--13--12-12--||
B ||-12---10--3--3-3--5-5---10--13--12-12--|| X2

Shawn - Bass
E ||---------------------------------------||
B ||---------------------------------------||
F#||---------------------------------------||
B ||-12---10--3--3-3--5-5---10--13--12-12--|| X2

=======--\\\\\\\\\\\\\\\\\\\\\\\\\\\\\\\\\\\\\\\\\\\\\\\\\\\\\\\\\\\\\\\\\\
PRE-VERSE==---|============================================================
=======--//////////////////////////////////////////////////////////////////

1:25
Both Guitars:
(Use some sort of phaser and a rotary effect)
"-eight"
G#||--------------------------------------------------------||
C#||--------------------------------------------------------||
E ||--------------------------------------------------------||
B ||--------------------------------------------------------||
F#||-------13-----------------------------------------------||
B ||-12-13----13-12-3-1-0-0-3-1-0-0-3-1-0-0-1-1-0-0-1-1-0-0-|| X2
     =  =     =  =
Screamed: "ooh!"

-----------------------------------------
1:29
Both Guitars:
G#||--------------------------------------------------------||
C#||--------------------------------------------------------||
E ||--------------------------------------------------------||
B ||--------------------------------------------------------||
F#||-------13-----------------------------------------------||
B ||-12-13----13-12-3-1-0-0-3-1-0-0-3-1-0-0-1-1-0-0-1-1-0-0-|| X2

-----------------------------------------
1:35
PLAY VERSE 1

-----------------------------------------
1:59
PLAY CHORUS

=======--\\\\\\\\\\\\\\\\\\\\\\\\\\\\\\\\\\\\\\\\\\\\\\\\\\\\\\\\\\\\\\\\\\
BRIDGE==---|===============================================================
=======--//////////////////////////////////////////////////////////////////

2:23
"-Eight!"
Both Guitars
G#||-----------------------||
C#||-----------------------||
E ||-----------------------||
B ||-----------------------||
F#||-0-0--0--0---0--0--0-0-||
B ||-0-0--0--0---0--0--0-0-|| X2

Shawn - Bass
E ||-----------------------||
B ||-----------------------||
F#||-----------------------||
B ||-0-0--0--0---0--0--0-0-|| X2

-----------------------------------------
2:28
Josh - Lead
G#||------------------------------------------||
C#||------------------------------------------||
E ||-7-----12-1012-----14-10----5-5-7--8---10-||
B ||-x-----x--x-x------x--x-----x-x-x--x---x--||
F#||-5-----10-8-10-----12-8-----3-3-5--6---8--||
B ||------------------------------------------|| 

Jim - Rythem
G#||------------------------------------------||
C#||------------------------------------------||
E ||------------------------------------------||
B ||-12----13----------15-------17-----18--20-||
F#||-12----13----------15-------17-----18--20-||
B ||-12----13----------15-------17-----18--20-|| 

Shawn - Bass
E ||------------------------------------------||
B ||------------------------------------------||
F#||------------------------------------------||
B ||-12----13----------15-------17-----18--20-|| 

-----------------------------------------
2:40
Josh - Lead
G#||------------------------------------------||
C#||------------------------------------------------------------------------
E ||-7-----7-8---------14-15-14-12-14-10-------14-15-14-1014--12------13--15
B ||-x-----x-x---------x--x--x--x--x--x--------x--x--x--x-x---x-------x---x-
F#||-5-----5-6---------12-13-12-10-12-8--------12-13-12-8-12--10------11--13
B ||------------------------------------------------------------------------ 

Jim - Rythem
G#||------------------------------------------------------------------------
C#||------------------------------------------------------------------------
E ||-14----14-15-14-12-------------14-15-14-10--------------15-17--17-19--22
B ||-x-----x--x--x--x--------------x--x--x--x---------------x--x----x--x--x-
F#||-12----12-13-12-10-------------12-13-12-8---------------13-15--15-17--20
B ||------------------------------------------------------------------------

Shawn - Bass
E ||------------------------------------------------------------------------
B ||------------------------------------------------------------------------
F#||------------------------------------------------------------------------
B ||-12-----------------------------------------------------13-15--15-17----20 

-----------------------------------------
2:52
Both Guitars:
"Yea!!"
G#||----------------------------------------||
C#||----------------------------------------||
E ||----------------------------------------||
B ||----------------------------------------||
F#||----------------------------------------||
B ||-12-0-12-0-12-13-12-0-12-0-12-0-8-7-5-7-|| X2 

Shawn - Bass
E ||----------------------------------------||
B ||----------------------------------------||
F#||----------------------------------------||
B ||-12-0-12-0-12-13-12-0-12-0-12-0-8-7-5-7-|| X2

-----------------------------------------
2:58
Josh - Lead
G#||----------------------------------------||
C#||----------------------------------------||
E ||----------------------------------------||
B ||-12-0-12-0-12-13-12-0-12-0-12-0-8-7-5-7-||
F#||----------------------------------------||
B ||----------------------------------------|| 

Jim - Rythem
G#||----------------------------------------||
C#||----------------------------------------||
E ||----------------------------------------||
B ||----------------------------------------||
F#||----------------------------------------||
B ||-12-0-12-0-12-13-12-0-12-0-12-0-8-7-5-7-|| 

Shawn - Bass
E ||----------------------------------------||
B ||----------------------------------------||
F#||----------------------------------------||
B ||-12-0-12-0-12-13-12-0-12-0-12-0-8-7-5-7-|| 

-----------------------------------------
3:01
Josh - Lead
G#||----------------------------------------||
C#||----------------------------------------||
E ||----------------------------------------||
B ||-12---12---12-13-12---12---12---8-7-5-7-||
F#||----------------------------------------||
B ||----------------------------------------|| 

Jim - Rythem
G#||----------------------------------------||
C#||----------------------------------------||
E ||----------------------------------------||
B ||----------------------------------------||
F#||----------------------------------------||
B ||-12---12---12-13-12---12---12---8-7-5-7-|| 

Shawn - Bass
E ||----------------------------------------||
B ||----------------------------------------||
F#||----------------------------------------||
B ||-12---12---12-13-12---12---12---8-7-5-7-|| 

3:04
PLAY VERSE 1

3:28
Both Guitars:
Play the Below riff 2x(Twice)
                         "This is where it beg-."
G#||-------------------------------------------||
C#||-------------------------------------------||
E ||-------------------------------------------||
B ||-------------------------------------------||
F#||-5-5-5-5-5-5-5-5-5-5-5-6--5-5-6--5-6-5-3-5-||
B ||-5-5-5-5-5-5-5-5-5-5-5-6--5-5-6--5-6-5-3-5-||
     . . . . . . . . . . .    . .  

Shawn - Bass
*Zoomed in version of the riff*
E ||-------------------------------------------||
B ||-------------------------------------------||
F#||-------------------------------------------||
B ||-5-5-5-5-5-5-5-5-5-5-5-6--5-5-6--5-6-5-3-5-||

-----------------------------------------
3:33
Both Guitars:        
            "This is where it be-"
G#||-----------------------------||
C#||-----------------------------||
E ||-----------------------------||
B ||-----------------------------||
F#||-----------------------------||
B ||-6-5-6-5--6--0--6--3-6-5-3-5-||
     

Shawn - Bass
E ||-----------------------------||
B ||-----------------------------||
F#||-----------------------------||
B ||-6-5-6-5--6--0--6--3-6-5-3-5-||

----------------------------------------
3:36
Both Guitars:        
"gins..." "And This is where it ends!"
G#||-----------------------------||
C#||-----------------------------||
E ||-----------------------------||
B ||-----------------------------||
F#||-----------------------------||
B ||-6-5-6-5--6--0--6--3-6-5-3-5-||
     

Shawn - Bass
E ||-----------------------------||
B ||-----------------------------||
F#||-----------------------------||
B ||-6-5-6-5--6--0--6--3-6-5-3-5-||

=======--\\\\\\\\\\\\\\\\\\\\\\\\\\\\\\\\\\\\\\\\\\\\\\\\\\\\\\\\\\\\\\\\\\
OUTRO CHORUS/OUTRO==---|===================================================
=======--//////////////////////////////////////////////////////////////////

3:40
Both Guitars:
"
G#||---------------------------------------||
C#||---------------------------------------||
E ||---------------------------------------||
B ||-12---10--3--3-3--5-5---10--13--12-12--||
F#||-12---10--3--3-3--5-5---10--13--12-12--||
B ||-12---10--3--3-3--5-5---10--13--12-12--|| X2

Shawn - Bass
E ||---------------------------------------||
B ||---------------------------------------||
F#||---------------------------------------||
B ||-12---10--3--3-3--5-5---10--13--12-12--||

----------------------------------------
3:51
Josh - Lead
" 
G#||---------------------------------------||
C#||---------------------------------------||
E ||-10---9-9-10-5-5--7-7---12--14--14-14--||
B ||-x----x-x-x--x-x--x-x---x---x---x--x---||
F#||-8----7-7-8--3-3--5-5---10--12--12-12--||
B ||---------------------------------------|| 

Jim - Rythem
G#||---------------------------------------||
C#||---------------------------------------||
E ||---------------------------------------||
B ||-12---10--3--3-3--5-5---10--13--12-12--||
F#||-12---10--3--3-3--5-5---10--13--12-12--||
B ||-12---10--3--3-3--5-5---10--13--12-12--|| 

Shawn - Bass
E ||---------------------------------------||
B ||---------------------------------------||
F#||---------------------------------------||
B ||-12---10--3--3-3--5-5---10--13--12-12--|| 

----------------------------------------
3:57
Josh - Lead
                          "thrity thirty one fifty,"
G#||---------------------------------------||
C#||---------------------------------------||
E ||-10---9-9-10-5-5--7-7------------------||
B ||-x----x-x-x--x-x--x-x------------------||
F#||-8----7-7-8--3-3--5-5------------------||
B ||---------------------------------------|| 

Jim - Rythem
G#||---------------------------------------||
C#||---------------------------------------||
E ||---------------------------------------||
B ||-12---10--3--3-3--5-5------------------||
F#||-12---10--3--3-3--5-5------------------||
B ||-12---10--3--3-3--5-5------------------|| 

Shawn - Bass
E ||---------------------------------------||
B ||---------------------------------------||
F#||---------------------------------------||
B ||-12---10--3--3-3--5-5------------------|| 

----------------------------------------
4:01
*The Tremelo'd notes are picked 2x(twice)*
"Eight!"                                                
G#||--------------------------------------------------------||
C#||--------------------------------------------------------||
E ||--------------------------------------------------------||
B ||--------------------------------------------------------||
F#||-------13-----------------------------------------------||
B ||-12-13----13-12-3-1-0-0-3-1-0-0-3-1-0-0-1-1-0-0-1-1-0-0-|| X3
     =  =     =  =

Shawn - Bass
*The Tremelo'd notes are picked 2x(twice)*                                               
E ||--------------------------------------------------------||
B ||--------------------------------------------------------||
F#||-------13-----------------------------------------------||
B ||-12-13----13-12-3-1-0-0-3-1-0-0-3-1-0-0-1-1-0-0-1-1-0-0-|| X3

----------------------------------------
4:11 
*
"Eight!"                                                
G#||-------------------------------------------------------||
C#||-------------------------------------------------------||
E ||-------------------------------------------------------||
B ||-------------------------------------------------------||
F#||-------13----------------------------------------------||
B ||-12-13----13-12-3-1-0-0-3-1-0-0-3-1-0-0-1-1-0-0-1-1-0--|| 
     =  =     =  =

Shawn - Bass
*The Tremelo'd notes are picked 2x(twice)*                                               
E ||-------------------------------------------------------||
B ||-------------------------------------------------------||
F#||-------13----------------------------------------------||
B ||-12-13----13-12-3-1-0-0-3-1-0-0-3-1-0-0-1-1-0-0-1-1-0--|| 





Comments


Popular Stone Sour tabs & chords
Digital (Did You Tell) Bass Tabs
Sillyworld Bass Tabs
Say Youll Haunt Me 1 Chords
Through Glass 4 Chords
Wicked Game Chords
Bother (Solo) Tabs
Bother -- Main Riff Tabs
Come What Ever May Tabs
Freeze Dry Seal Tabs
Miracles Ukulele


Song lyrics



↑ Back to top | Tablatures and chords are parodies/interpretations of the original songs. You may use it for private study, scholarship, research or language learning purposes only
© 2014 AZChords.com Contact us | Privacy policy | DMCA | Add/correct tabs | Request tabs | Top 50 tabs