>
 >
30-30/150 2

30-30/150 2 Guitar Tabs

Stone  Sour - 30-30/150 2 chords, tabs, tablatures, lyrics

Guitar lessons | Add/correct | Request | Top 50 tabs Artists:  A B C D E F G H I J K L M N O P Q R S T U V W X Y Z 0-9

30-30/150 2 Guitar Tabs – Stone Sour

CD, Sheet music, Poster

Do you like 30-30/150 2? Share with your friends now
Bass TabsBass Tabs v2Bass Tabs v3TabsTabs v2Tabs v3
Tab Legend:
. - Palm Mute

INTRO
(Light palm mute)
C#|-----------------------|
G#|-----------------------|
E |-----------------------|
B |-----------------------|
F#|-0-0--0--0---0--0--0-0-|
B |-0-0--0--0---0--0--0-0-| X3
    . .  .  .   .  .  . .

|----------------------|
|----------------------|
|----------------------|
|----------------------|
|-0-0--0--0---0--0--0--|
|-0-0--0--0---0--0--0--| 
  . .  .  .   .  .  .

HEAVY INTRO
(All the below is tremelo picked)
|---------------------------------------|
|---------------------------------------|
|---------------------------------------|
|---------------------------------------|
|---------1313--------------------------|
|-12121313----131312120-310310310100100-| X4

VERSE
(Light palm mute)
|---------------------------------------------|
|---------------------------------------------|
|---------------------------------------------|
|---------------------------------------------|
|-0-0--000--0-0-------------------------------|
|-0-0--000--0-0--22332-0-0--000--0-0-66553355-| X2
  . .  ...  . .  ..... . .  ...  . . ........

|---------------------------------------------|
|---------------------------------------------|
|---------------------------------------------|
|---------------------------------------------|
|-5-5-55--5-5-5-----------5-5-55--5-5-5-------|
|-5-5-55--5-5-5-555666555-5-5-55--5-5-5-56565-| 
                .........               .....

|---------------------------------------------|
|---------------------------------------------|
|---------------------------------------------|
|---------------------------------------------|
|-0-0-00--0-00-----------0-0-00--00-0---------|
|-0-0-00--0-00--223322---0-0-00--00-0--223322-| 
                ......                 ......

PRECHORUS
(Light Palm Mute)
|--------------------|
|--------------------|
|--------------------|
|--------------------|
|-55555-6--6-6-3-5-6-|
|-55555-6--6-6-3-5-6-| X4
  ..... .  . . . . .

CHORUS
Guitar 1
|-----------------------------|
|-----------------------------|
|-----------------------------|
|-12--10--6--5-5---10--13-12--|
|-12--10--6--5-5---10--13-12--|
|-12--10--6--5-5---10--13-12--|

Guitar 2
|-----------------------------|
|-----------------------------|
|-14--12--8--7-7---5--8-7-----|
|-x---x---x--x-x---x--x-x-----|
|-12--10--6--5-5---3--6-5-----|
|-----------------------------|

Guitar 1
|-----------------------------|
|-----------------------------|
|-------------------------10--|
|-12--10--6--5-5---10--13-x---|
|-12--10--6--5-5---10--13-8---|
|-12--10--6--5-5---10--13-----|

Guitar 2
|-----------------------------|
|-----------------------------|
|-14--12--8--7-7---5--8-10----|
|-x---x---x--x-x---x--x-x-----|
|-12--10--6--5-5---3--6-8-----|
|-----------------------------|

Both Guitars

|-----------------------------|
|-----------------------------|
|-10--9--10-7----12--15--10---|
|-x---x--x--x----x---x---x----|
|-8---7--8--5----10--13--8----|
|-----------------------------|

|-----------------------------|
|-----------------------------|
|-10--9--10-7----12--15-------|
|-x---x--x--x----x---x--------|
|-8---7--8--5----10--13-------|
|-----------------------------|

heavy intro x2

intro x2

BRIDGE
Guitar 1
|-----------------------------|
|-----------------------------|
|-----------------------------|
|-12----13----15----17--18-20-|
|-12----13----15----17--18-20-|
|-12----13----15----17--18-20-|

Guitar 2
|---------------------------|
|---------------------------|
|-7----8----10----12--13-15-|
|-x----x----x-----x---x--x--|
|-5----6----8-----10--11-13-|
|---------------------------|

Both Guitars
|---------------------------|
|---------------------------|
|-7----8----10----12--13-15-|
|-x----x----x-----x---x--x--|
|-5----6----8-----10--11-13-|
|---------------------------|

Background Guitar
(Goes on when both guitars
do octaves)
|---------------------------|
|-11-10--8--10--------------|
|-x--x---x--x---------------|
|-8--7---5--7---------------|
|---------------------------|
|---------------------------| X2

(Both Guitars)
|----------------------------------------|
|----------------------------------------|
|----------------------------------------|
|----------------------------------------|
|----------------------------------------|
|-12-0-12-0-12-13-12-0-12-0-12-0-8-7-5-7-| X4

Guitar 2
(Guitar plays this after the above riff
is played 2X)
|----------------------------------------|
|----------------------------------------|
|----------------------------------------|
|-12-0-12-0-12-13-12-0-12-0-12-0-8-7-5-7-|
|----------------------------------------|
|----------------------------------------| X2

Play VERSE

Play PRECHORUS X2

|-------------------------|
|-------------------------|
|-------------------------|
|-------------------------|
|-------------------------|
|-6565656-0-0-0-6-6-3-5-6-| X2

Play CHORUS
(For the last riff play this)
|-----------------------------|
|-----------------------------|
|-10--9--10-7-----------------|
|-x---x--x--x-----------------|
|-8---7--8--5-----------------|
|-----------------------------|

Play HEAVY INTRO X3

|----------------------------------------|
|----------------------------------------|
|----------------------------------------|
|----------------------------------------|
|---------1313-----------------------1-0-|
|-12121313----131312120-310310310100-1-0-|





Comments


Popular Stone Sour tabs & chords
Dying Bass Tabs
Sillyworld Bass Tabs
Wicked Game 1 Chords
Black John Tabs
Check This One Out Tabs
Reborn 3 Tabs
The Day I Let Go Intro Tabs
Through Glass 1 Tabs
Wicked Game Ukulele
Zzyzx Rd Ukulele


Song lyrics



↑ Back to top | Tablatures and chords are parodies/interpretations of the original songs. You may use it for private study, scholarship, research or language learning purposes only
© 2014 AZChords.com Contact us | Privacy policy | DMCA | Add/correct tabs | Request tabs | Top 50 tabs