» » »

Tonight, Tonight Tabs (ver.2)

Artists:  A B C D E F G H I J K L M N O P Q R S T U V W X Y Z # 

Tonight, Tonight Tabs (ver.2)

Smashing Pumpkins
Rating:
0/5 (0 votes)

Hard to play? Try these video lessons and learn fast.
                Tonight, Tonight by Billy Corgan on MCIS

The song is in Eb.
Intro:  G   Em    G   Em
Rhy Fig 1:
|------------------------------|-------------------|--------------------------
--|
|----0-----0------0-----0------|---0---------0-----|---0---0-----0---0--------
--|
|-----0------0-----0------0----|-----0---------0---|----0---0-----0---0-------
--|
|------0-------0----0-------0--|-------0---------0-|--2---2---2/5---5---------
--|
|--3------5------3-----5-------|--3--------5-------|--------------------------
--|
|------------------------------|-------------------|--------------------------
--|

Verse 1:  with Rhy Fig 1
Time is never time at all
you can never ever leave without leaving a piece
of youth
and our lives are forever changed
we will never be the same
the more you change the more you feel
believe, believe in me, believe
Am                    C                             G    D    Em
that life can change, that you're not stuck in vain
Am                    C
we're not the same, we're different tonight
Chorus:
C  B  D
tonight, so bright
tonight
G
And you know you're never sure
but you're sure you could be right
Em
if you held yourself up to the light
G
and the embers never fade in your city by the lake
Em
the place where you were born

with Rhy Fig 1  ( omit the 3rd Bar)
believe, believe in me, believe
Am              C               G    D    Em
in the resolute urgency of now
Am                         C              
and if you believe there's not a chance tonight
C  B   D
tonight, so bright
C   B   D         G    D    Em
tonight
Am                C            G    D    Em
we'll crucify the insincere tonight
Am                             C            G    D    Em
we'll make things right, we'll feel it all tonight
Am                   C               G    D    Em
we'll find a way to offer up the night tonight
Am                   C              G    D    Em
the indescribable moments of your life tonight
Am                 C        G    D    Em
the impossible is possible tonight
         Am                C
if you believe in me as I believe in you , tonight
End song with tonight tonight a few times while playing Rhy Fig 1(omit 3rd)
The last chords are   G    D    Em.  I find that you get a more dramatic exit
if you use D/F# instead of D.      Enjoy.      Alex Spitzer


Tonight Tonight
Smashing Pumpkins



The following is not precise.  All the chords and picking patterns are here.   
If youve got the song on cd or tape <chances are you have> then you shouldnt 
have a problem working out the strumming - its mostly down strumming.  The chords 
in the song are G, D, C, Em, Aadd9


  <intro parts>           <verse>

E------|-------------2--|-------------------------------------------------|
B------|-------------3--|------0--------0--------------0--------0---------|
G------|-------------2--|---------0-------0----0----------0-------0---0---|
D-0--2-|-0----2------0--|------------0------0----------------0------0-----|
A-2--2-|-2----2---------|-3------------------------5----------------------|
E-3--0-|-3----0---------|-------------------------------------------------|

                          "Time is never...

   <verse>
E---------------------------|----------------------------|
B--------0-------0----------|-----------0------0---------|
G----------0-------0----0---|-------------0------0----0--|
D------------0-------0------|---------------0------0-----|
A----7----------------------|------10--------------------|
E---------------------------|----------------------------|

  ..."less you feel"

<the above part maybe difficult to hear but believe me its there.  I watched Billy play
it on video and thats what he does in the "piece of youth" and the "less you feel bit">


  <end of verse>
E-----------------------|---------------------------|
B-----0-------0---------|--------0-------0----------|
G-------0-------0----0--|----------0-------0----0---|
D---------0-------0-----|------------0-------0------|
A--3--------------------|----5----------------------|
E-----------------------|---------------------------|

"believe"				"believe in me"


<prechorus parts>	

E-------------2-------|--------------------------|
B-------------3-------|----------------1---------|
G-----0-------2-------|---------2------0---------|
D-----0-------0----2--|---------2------2---------|
A-----2------------2--|---------0------3---------|
E-----3------------0--|--------------------------|



<chorus parts>

E----3----------------2---|--------------------|
B----3----------------3---|----------------1---|
G----0----------------2---|--------2-------0---|
D----0-------2--------0---|--------2-------2---|
A----2-------2------------|--------0-------3---| 
E----3-------0------------|--------------------|


<2nd Chorus>                          <2nd prechorus>

E-------------------------------|----------------------------------------|
B-------------------------------|------0------0------------0-----0-------|
G------0------------------------|--------0------0---0--------0-----0---0-|
D------0-------2----------------|----------0------0------------0-----0---|
A------2-------2----------------|--3----------------------5--------------|
E------3-------0----------------|----------------------------------------|

And you know you cant be sure...          Believe...

*****play chorus again*********

<faster bit at the end>


     G      Em   D      Aadd9    C
    
E----3-----------2-------------------|
B----3-----------3-------0-------1---|
G----0------0----2-------2-------0---|
D----0------2----0-------2-------2---|
A----2------2----0-------0-------3---|
E----3------0--------------------3---|

  "Well crucify..."


****At the end play the picking bit again yada yada yada you know what to do.*****

Well hope you find this useful.  Enjoy  :)

Kris.
            
Hard to play? Try these video lessons and learn fast. | Correct




comments powered by Disqus
↑ Back to top | Tablatures and chords are parodies/interpretations of the original songs. You may use it for private study, scholarship, research or language learning purposes only