>
 >
Soma

Soma Guitar Tabs

Smashing Pumpkins - Soma chords, tabs, tablatures, lyrics

Guitar lessons | Add/correct | Request | Top 50 tabs Artists:  A B C D E F G H I J K L M N O P Q R S T U V W X Y Z 0-9

Soma Guitar Tabs – Smashing Pumpkins

CD, Sheet music, Poster

Do you like Soma? Share with your friends now
Bass TabsChordsTabsTabs v2Tabs v3
OK Here it is!

----
soma -- smashing pumpkins (billy corgan/james iha)
----

This is my way to play the chords:

       B     E     G    F#     A     C     F     D 
E------0-----0-----3-----9-----5-----8-----1----10--
B------0-----0-----0-----9-----5-----8-----1----10--
G------8-----9-----0----11-----6-----9-----2----11--
D------9-----9-----0----11-----7----10-----3----12--
A------9-----7-----2-----9-----7----10-----3----12--
E-----(7)---(7)----3-----9-----5-----8-----1----19--

Hints: use chorus, reverb, echo, and Ebows to get it to sound like the record.
 Or just have fun with it.

intro -- this is very approximate - repeat 2x-|
                                              |
------0-----------0-----0-------7---7----7----|
------0-----------0-----0-------0---0--0--0---|
------8---8h9-----9---9-9-------0---0------0--|
----9-----9-----9---9---------0---0-----------|
--9-----9-----7-------------------------------|
----------------------------3-----------------|

------0------------0-----0------------------------------
------0------------0-----0------3----------3-----3------
------8----8h9-----9---9-9------4--------0-------0------
----9------9-----9---9----------5-5--4/5-----4/5---5----
--9------9-----7--------------5-------------------------
----------------------------3---------------------------
                                               band in
------0--------------7--------7---7----7-7------
------0---------------7-------------------------
------8----8h9-----9---9------------0-----------
----9------9-----9------------------------------
--9------9-----7------------5---5----5-----5----
--------------------------3---------------------

just repeat something similar to the above intro stuff with the rest of the
band until the vocals come in, then play the chords written above the lyrics.
with over 40 guitar tracks on this song alone, the best thing we can hope to do
is approximate it -- hell, on stage, the Pumpkins only have two guitarists.

lead w/full band:

----------------------0---0---0---0-----------------------0---0---0----9--
---8--------8/9--11\7---6---4---2-----8--------8/9--11--12--11-/14--\9----
-------9h11-9-----------------------------9h11-9--------------------------
                                                            into the vocals
------------------------------------------------------0----------
----------------------0---0---0---0--------------------0---------
---8--------8/9--11\7---6---4---2-----8--------8/9--11--/12------
-------9h11-9-----------------------------9h11-9-----------------

[for the vocals, play something similar to the intro w/lead part]

B        E       G 
nothing left to say
B            E       G 
and all i've left to do
B       E        G
is run away from you
               B  E  
and she let me on down
     G               B   E
with secrets i can't keep

[play that lead part here for the next 4 lines]
G                   B    E
close your eyes and sleep
G                 B E
don't wait up for me
G                  B    E   G
hush now don't you speak to me

[crank up the mellotron here...]
B          E       G
wrapped my hurt in you
B           E               G
and took my shelter in that pain
B      E      G 
the opiate of blame
               B     E          G 
is your broken heart heart your heart

[lead w/Mike Mills on piano, playing the chords]
       B       E    G
so now i'm all by myself
B       E      G
as i've always felt
    B      E       G
and i'll betray my tears
      B   E      G              F#
to anyone caught in our ruse of fools

B                        F# 
one last kiss for me yeah
B
one last kiss
     G 
good night


[solo1] play E G A F# under solo1

Okay, the amazing thing about this solo -- and I shit you not -- is that not
only is it on an acoustic guitar (!) driven by an Ebow (!!), but there are
FOURTEEN studio tracks of it! (!!!)  So don't worry if this isn't exact. :)
                                bend up & down
---10---------10-----------------------------------------------------------
--------10h12-----10-/14\10--7--b7(8)b7b7(8)-------------------------------
----0----------------------------------------------------------------------
----------------------------------------------b4(5)b4b4(5)-/12--11h12p11---



              normal guitar, let open strings ring into power chords
-----------------------0----------------0-----------------------
-------------------9-----9---9-----9----------------------------
--/14--\9--7-----9---9-----9-----9---9--------------------------
---------------7---------------7--------------------------------

[Distortion! Power Chords! YES!!]

A   C   G                F              A   C  G 
          didn't want to lose you once again 
               F       A     C  G
didn't want to be your friend
            F               A  C  G
fulfilled a promise made of tin
                    F
and crawled back to you
    B       E    G
now i'm all by myself  (close your eyes and sleep)
B       E      G
as i've always felt    (don't wait up for me)
    B      E      G
and i'll betray myself (hush now don't you speak)
      B   E
to anyone lost 
G
anyone but you


[solo2] B  E  G under solo2
[to be finished at a later date, when my physical therapy is done]


A  C  G            F              A  C  G
        so let the sadness come again
            F
on that you can 
  E       G
depend on me
D         C             E  
until the bitter bitter end
       G       D
of the world
                   C
when god sleeps in bliss
    B       E    G
and i'm all by myself
B       E      G
as i've always felt
    B      E    G
and i'll betray myself
      B  E G
to anyone.  

[back to clean chords]
B       E       G
nah nah nah nah nah nah nah nah
B         E        G
yeah yeah yeah nah nah nah nah nah
B         E        G
yeah yeah yeah nah nah nah nah nah
B         E        G
yeah yeah yeah nah nah
B
hoh...

Sincerely Yours,
Adelande





Comments


Popular Smashing Pumpkins tabs & chords
Cherub Rock 2 Bass Tabs
Heavy Metal Machines Bass Tabs
Mouths Of Babes 2 Bass Tabs
Dreaming 1 Chords
A Certain Kind Of Change Tabs
Mother Tabs
Thirty Three 1 Tabs
Where Boys Fear To Tread Tabs
X Y U 1 Tabs
Bleed Ukulele


Song lyrics



↑ Back to top | Tablatures and chords are parodies/interpretations of the original songs. You may use it for private study, scholarship, research or language learning purposes only
© 2014 AZChords.com Contact us | Privacy policy | DMCA | Add/correct tabs | Request tabs | Top 50 tabs