» » »

Zero Tabs (ver.1)

Artists:  A B C D E F G H I J K L M N O P Q R S T U V W X Y Z # 

Zero Tabs (ver.1)

Smashing Pumpkins
Rating:
0/5 (0 votes)
Tabs too difficult? Try these video lessons and learn fast.
                
Dropped 1/2 step

Low -------> High
D# G# C# F# A# D#

This song is very simple once you get the harmonics right (guitars do vary in where these are found)...but your guess is a good as mine when it comes to the lead...the only thing i can figure about the lead is that james has a harmonizer and whammy duo going on.  For those of you who don't know how to creat harmonics, lightly rest your finger on the string at the position indidcated by the tab and pluck that particular string(for practice use the 12th fret...it's the easiest by far to squeal harmonics out of)E-mail me if you don't think it's 99% perfect.

w/heavy distortion

intro --> repeat 4x
|--------------------------------------------|
|--------------------------------------------|
|--5/4-4-------------5-5/4-4-----------------|
|--X/X-X-------------X-X/X-X-----------------|
|--3/2-2-------------3-3/2-2-----------------|
|-------2.75-3.25-4.0-------2.75-3.25-4.0----|
         ^----^----^         ^----^----^
          harmonics           harmonics

verse --> repeat 4x
|--------------------------------|
|--------------------------------|
|--5/4-4---------5-5/4-4---------|
|--X/X-X---------X-X/X-X---------|
|--3/2-2---------3-3/2-2---------|
|--------0-0-0-0---------0-0-0-0-|


pre-chorus

                           ...so save your prayers....
|------------------------------------------|
|------------------------------------------|
|--9-----11-----9-----12-----11------------|
|--X------X-----X------X------X------------|
|--7------9-----7-----10------9------------|
|----0-0----0-0---0-0----0-0----10~~10~~-0-|

|------------------------------------------|
|------------------------------------------|
|--9-----11-----9-----12-----11/14-14------|
|--X------X-----X------X------X/-X--X------|
|--7------9-----7-----10------9/12-12------|
|----0-0----0-0---0-0----0-0----------0----|

|------------------------------------------|
|------------------------------------------|
|--9-----11-----9-----12-----11------------|
|--X------X-----X------X------X------------|
|--7------9-----7-----10------9------------|
|----0-0----0-0---0-0----0-0----10~~10~~-0-|

|------------------------------------------|
|------------------------------------------|
|--9-----11-----9-----12-----11------------|
|--X------X-----X------X------X------------|
|--7------9-----7-----10------9------------|
|----0-0----0-0---0-0----0-0----10~~10~~---|

chorus --> repeat 6x
|--------------------------------------------|
|--------------------------------------------|
|--5/4-4-------------5-5/4-4-----------------|
|--X/X-X-------------X-X/X-X-----------------|
|--3/2-2-------------3-3/2-2-----------------|
|-------2.75-3.25-4.0-------2.75-3.25-4.0----|
         ^----^----^         ^----^----^
          harmonics           harmonics


interlude
...emptiness is loneliness...
|--------------------------------------------|
|--------------------------------------------|
|--9-9-9----9-9-9----9-9-9----9-9------------|
|--9-9-9----9-9-9----9-9-9----9-9------------|
|--7-7-7----7-7-7----7-7-7----7-7------------|
|--------------------------------------------|

1st solo played over this   repeat 2x
|--------------------------------------------|
|--------------------------------------------|
|--5/4-4-------------5-5/4-4-----------------|
|--X/X-X-------------X-X/X-X-----------------|
|--3/2-2-------------3-3/2-2-----------------|
|-------2.75-3.25-4.0-------2.75-3.25-4.0----|
         ^----^----^         ^----^----^
          harmonics           harmonics

verse --> repeat 4x
|--------------------------------|
|--------------------------------|
|--5/4-4---------5-5/4-4---------|
|--X/X-X---------X-X/X-X---------|
|--3/2-2---------3-3/2-2---------|
|--------0-0-0-0---------0-0-0-0-|


pre-chorus

|------------------------------------------|
|------------------------------------------|
|--9-----11-----9-----12-----11------------|
|--X------X-----X------X------X------------|
|--7------9-----7-----10------9------------|
|----0-0----0-0---0-0----0-0----10~~10~~-0-|

|------------------------------------------|
|------------------------------------------|
|--9-----11-----9-----12-----11/14-14------|
|--X------X-----X------X------X/-X--X------|
|--7------9-----7-----10------9/12-12------|
|----0-0----0-0---0-0----0-0----------0----|

|------------------------------------------|
|------------------------------------------|
|--9-----11-----9-----12-----11------------|
|--X------X-----X------X------X------------|
|--7------9-----7-----10------9------------|
|----0-0----0-0---0-0----0-0----10~~10~~-0-|

|------------------------------------------|
|------------------------------------------|
|--9-----11-----9-----12-----11------------|
|--X------X-----X------X------X------------|
|--7------9-----7-----10------9------------|
|----0-0----0-0---0-0----0-0----10~~10~~---|


2nd solo played over
|----------------------------------------------------------------------------|
|----------------------------------------------------------------------------|
|-------------------------5-5/4-4------------------------5-5/4-4-------------|
|-X///////----------------X-X/X-X------------------------X-X/X-X-------------|
|-X///////--3-----2-------3-3/2-2----------3-----2-------3-3/2-2-------------|
|-X///////----1-3---0-0-0---------0-0-0-0----1-3---0-0-0----------0-0-0-0----|
  ^------^
scr*pe pick up neck


|---------------------------------------------------------------|
|---------------------------------------------------------------|
|-----------------5-5/4-4-----------------------5-5/4-4---------|
|-----------------X-X/X-X-----------------------X-X/X-X---------|
|--3-----2--------3-3/2-2---------3-----2-------3-3/2-2---------|
|----1-3---0-1-3----------0-0-0-0---1-3---0-0-0---------0-0-0-0-|

repeat 4X
|-----------------------------------------|
|-----------------------------------------|
|--9-----9-----9-----11-------------------|
|-----------------------------------------|
|--7-----7-----7------9-------------------|
|----0-0---0-0---0-0----10~~10~~----------|

repeat 4x don't play harmonics through the second and fourth time 
|--------------------------------------------|
|--------------------------------------------|
|--5/4-4-------------5-5/4-4-----------------|
|--X/X-X-------------X-X/X-X-----------------|
|--3/2-2-------------3-3/2-2-----------------|
|-------2.75-3.25-4.0-------2.75-3.25-4.0----|
         ^----^----^         ^----^----^
          harmonics           harmonics
            
Tabs too difficult? Try these video lessons and learn fast.


comments powered by Disqus
↑ Back to top | Tablatures and chords are parodies/interpretations of the original songs. You may use it for private study, scholarship, research or language learning purposes only