» » »

Tonight (Reprise) Chords (ver.1)

Artists:  A B C D E F G H I J K L M N O P Q R S T U V W X Y Z # 

Tonight (Reprise) Chords (ver.1)

Smashing Pumpkins
Rating:
0/5 (0 votes)

Hard to play? Try these video lessons and learn fast.
                Tonite (Reprise)
You know who wrote it and how to tune your guitar

(verse parts 1+2 repeated several times; listen to the CD)
And the embers never fade,
In my city by the lake,
The place, where, I was born,
As the wind-up toys wind down,
Muffling the sound,
Of a life hidden underground,
Believe, believe in me, believe, believe,

G      D4  Em(arp.)       Am
                          That you can change,
C
That you're not stuck in vain
G      D4  Em             Am                 OPEN
                          We're not the same we're
C
Different
C9     G     D
Tonight           ah-
night
Tonight
G      D4  Em       Am                     C
Tonight             We'll   crucify  the   insincere
Tonight, Tonight    We'll make things right we'll feel it all
Tonight, Tonight    The   impossible  is   possible    To-
G      D4  Em         (pause)      C9
night
(verse part 1)
Tonight, tonight, tonight, tonight
$G    $D4    $Em


verse part 1
------------------------------------------
---0-----0-----0-----0-----0-----0--------
-----0-----0-----------0-----0------------
-------0-----0-----------0-----0----------
-3----------------5-----------------------
------------------------------------------

verse part 2
------------------------------------------
---0-----0-----0-----0-----0-----0--------
-----0-----0-----------0-----0------------
-------0-----0-----------0-----0----------
-7----------------10----------------------
------------------------------------------

 G  D4  Em  Am  C  C9  OPEN
-2--3---0---0---0--0----0-----------------
-0--3---0---1---1--3----0-----------------
-0--2---0---2---0--0----0-----------------
-0--0---2---2---2--2----0-----------------
-2--0---2---0---3--3----0-----------------
-3--2---0---------------0-----------------
            
Hard to play? Try these video lessons and learn fast. | Correct




comments powered by Disqus
↑ Back to top | Tablatures and chords are parodies/interpretations of the original songs. You may use it for private study, scholarship, research or language learning purposes only