» » »

Tonight, Tonight Bass tabs (ver.1)

Artists:  A B C D E F G H I J K L M N O P Q R S T U V W X Y Z # 

Tonight, Tonight Bass tabs (ver.1)

Smashing Pumpkins
Rating:
0/5 (0 votes)

Hard to play? Try these video lessons and learn fast.
                Tuning: Eb Ab Db Gb

Nice try whoever did the last tab for this but it was pretty off in most
places. This should be right or at least very close. Make sure you tune 
your bass down 1/2 step.(Eb,Ab,Db,Gb) Also, make sure you take a look at 
the order on the bottom of this tabulature. It will make everything a lot 
easier to understand. There some places where you have to let the note 
ring but I'll let you guys figure that out.

Verse Part 1
(Let each note ring)
Gb|---------------------------|
Db|---------------------------|
Ab|---------------------------|
Eb|3-------------0------------|

Verse Part 2
Gb|-----------------------------------|
Db|-----------------------------------|
Ab|-----------------------------------|
Eb|8-7-10---8-7-10---8-7-10---3-------|

Verse Part 3
Gb|----------------------|
Db|----------------------|
Ab|3-5-3-5-3-5-3-5-7-10--|
Eb|----------------------|

Verse Part 4
Gb|------------------|
Db|------------------|
Ab|3-5-3-5-3-5-7-10--|
Eb|------------------|

Verse Part 5
Gb|------------|
Db|------------|
Ab|3-5-3-5-3-5-|
Eb|------------|

Chorus
Gb|------------------------|
Db|------------------------|
Ab|------------------------|
Eb|3-2-0---5------8--------|

Verse Part 6
Gb|--------------|
Db|--------------|
Ab|--------------|
Eb|8-7-10--8-7-10|

Verse Part 7
Gb|------|
Db|------|
Ab|------|
Eb|8-7-10|

Outro
Gb|----------------|
Db|----------------|
Ab|----------------|
Eb|3----2----0-----|                          

Verse Part 1 X2
Verse Part 2 X1
Verse Part 3 X1
Verse Part 4 X1
Verse Part 5 X1
Chorus X2
Verse Part 2 X1
Verse Part 6 X1
Verse Part 1 X3
Verse Part 5 X1
Chorus X2
Verse Part 2 X1
Verse Part 7 X1
Chorus X6
Outro X1
            
Hard to play? Try these video lessons and learn fast. | Correct




comments powered by Disqus
↑ Back to top | Tablatures and chords are parodies/interpretations of the original songs. You may use it for private study, scholarship, research or language learning purposes only