» » »

Smashing Pumpkins, The Rose March Tabs (ver.3)

Artists:  A B C D E F G H I J K L M N O P Q R S T U V W X Y Z # 

The Rose March Tabs (ver.3)

Smashing Pumpkins Tabs
Rating:
0/5 (0 votes)
The Rose March lessons Tabs too difficult? Try these video lessons and learn fast
                (Intro)

Smashing Pumpkins - The Rose March 

standard, capo 5

section A (4/4 time, all eighth notes):
e|--------------------------------------------|
B|--------------0-----------0-----------------|
G|----------0-----------0-----------0---------|
D|------2-----------4-------------------------|
A|------------------------------2-------------|
E|--------------------------------------------|

e|--------------------------------------------|
B|--------------------------------------------|
G|--------------0-----------0-------0---------|
D|----------2-----------0---------------------|
A|------0-----------3------------4--2---------| 4 is hit hammering down to 2
E|--------------------------------------------|  time the G string right then    
                                                it works

e|--------------------------------------------|
B|-----------------------3--------------------|
G|-------------0-------------0---0------------|
D|----------0------------------0--------------|
A|--------------------------------------------|
E|------2---------2---------------------------|


e|--------------------------------------------|
B|--------------------------------------------|
G|------2-------0----------  ---------0-------|
D|----------0-----------2-0----------(0)------|
A|------------------0-----------3-------------|
E|------4-------------------------------------|




e|--------------------------------------------|
B|--------------------------------------------|
G|------2-------0---------------0-------------|
D|----------0-----------2-0--pulling----------|
A|------------------0-----------3-------------|
E|------4-------------------------------------|


Please comment!
            

comments powered by Disqus
↑ Back to top | Smashing Pumpkins Tabs for The Rose March. Lyrics for acoustic guitar and electric guitar. Tablatures and chords are parodies/interpretations of the original songs. You may use it for private study, scholarship, research or language learning purposes only