» » »

Smashing Pumpkins, The Rose March Tabs (ver.1)

Artists:  A B C D E F G H I J K L M N O P Q R S T U V W X Y Z # 

The Rose March Tabs (ver.1)

Smashing Pumpkins Tabs
 Rating:
4/5 (4 votes)
The Rose March lessons Tabs too difficult? Try these video lessons and learn fast
1
                Smashing Pumpkins - The Rose March (after 7/31/07 version) 

standard, capo 5

section A (4/4 time, all eighth notes):
e|--------------------------------------------|
B|--------------3-----------3-----------------|
G|----------0-----------0-----------0---------|
D|------4-----------2-----------0-------------|
A|--------------------------------------------|
E|--------------------------------------------|

e|--------------------------------------------|
B|--------------------------------------------|
G|--------------0-----------0-------0---------|
D|----------0-----------0---------------------|
A|------0-----------3-------------------------|
E|------------------------------2-------------|

e|--------------------------------------------|
B|----------------------------------3---------|
G|--------------0-----------0-----------------|
D|----------0-----------0---------------------|
A|--------------------------------------------|
E|------0-----------0-----------0-------------|

e|--------------------------------------------|
B|--------------------------------------------|
G|--------------0-----------0-----------------|
D|----------0-----------0-----------0---------|
A|------------------0-----------3-------------|
E|------2-------------------------------------|
                       (--------------------) omit last time through

variation for first bit:
e|--------------------------------------------|
B|--------------3-----------0-----------------|
G|---------(0)----------0-----------0---------|
D|------4-----------2-----------0-------------|
A|--------------------------------------------|
E|--------------------------------------------|

each chord symbol below gets one bar 6/8 time:

(basic chords; mess around with hammer-ons, vibrato, etc.)

section B:
G - C - Asus2 - D - C - Em - D - D (x3)

section C:
C - C - Em - D (x2)
C - C - Em - D - D (x1)

section D:
Em7 - C - D - D (x2)

song structure: Ax2 > B > C > B > C > D > Ax10

or something like that, anyway - Sean
            
Submit corrections

comments powered by Disqus
↑ Back to top | Smashing Pumpkins Tabs for The Rose March. Lyrics for acoustic guitar and electric guitar. 1 Tablatures and chords are parodies/interpretations of the original songs. You may use it for private study, scholarship, research or language learning purposes only