» » »

Smashing Pumpkins, The Rose March Chords (ver.1)

Artists:  A B C D E F G H I J K L M N O P Q R S T U V W X Y Z # 

The Rose March Chords (ver.1)

Smashing Pumpkins Tabs
Rating:
0/5 (0 votes)
Hard to play? Try these video lessons and learn fast.
                
Tuning: Standard [EADGBe]
Capo on 5th fret.

Please send any corrections to Not_at_all_foster [AT] hotmail [DOT] co [DOT] uk 

Play through theis section 4 times, but don't sing on the first.
 
        La   da   da   da
e|--------------------------------------------|
B|--------------3-----------3-----------------|
G|----------0-----------0-----------0---------|
D|------2-----------4-----------0-------------|
A|--------------------------------------------|
E|--------------------------------------------|

       La    da    daaa        daaa 
e|--------------------------------------------|
B|--------------------------------------------|
G|--------------0-----------0-----------------|
D|----------0-----------0-----------0---------|
A|------0-----------3-------------------------|
E|------------------------------2-------------|

       daaa
e|--------------------------------------------|
B|----------------------3---------------------|
G|--------------0-----------0-------0---------|
D|----------0-------0-----------0-------------|
A|--------------------------------------------|
E|------0-------------------------------------|

        Laaa       la      la 
e|--------------------------------------------|
B|--------------------------------------------|
G|--------------0-----------0-----------------|
D|----------0-----------0-----------0---------|
A|------------------0-----------3-------------|
E|------2-------------------------------------|

On the fourth time through in the last bar, play;

        Laaa       la           la 
e|--------------------------------------------|
B|--------------------------------------------|
G|--------------0------------0----------------|
D|----------0-----------0--------3~-----------| [let it ring]
A|------------------0-------------------------|
E|------2-------------------------------------|


[The first strum of each beat should be the loudest.
I strum like so; Vv^v^ (DOWN down up down up) for each chord
Personally when I play a D chord I add a bit of vibrato on the B string]


G         C Cmaj7 Asus2
Slowpoked

          D    C       
And cross-eyed

Cmaj7  Em          D             Dsus4    
Pigeon-toed to the railroad ties

G           C Cmaj7 Asus2      
Humpbacked

          D       C
And sugar shacked

Cmaj7   Em  
Shotgun wed to

    D                  Dsus4
The poison of our past

  C             Cmaj
A little longer

  Em               D 
A little longer to go

       C               Cmaj7
You've a little longer

  Em               D
A little longer to go

D                 Dsus4
I just can't help say so

G C Cmaj7 

Asus2     D
Can't you see me

C Cmaj7 Em

D                Dsus4
Can't you see me at all

G            C Cmaj7 Asus2
Inner-spaced

        D     C 
And pie-faced

Cmaj7         Em
You catch the moon


I'll just stand here and run in place

G             C Cmaj7 Asus2
Shell-shocked

         D      C 
And half-cocked

    Cmaj7   Em  D                            Dsus4
The universe is full of black holes, and anniversary knots

C Cmaj

  Em               D 
A little longer to go

       C               Cmaj7                        
You've a little longer

  Em               D 
A little longer to go

D                         Em
You've a little longer to go

Em C

D
Can't you see me at all

Em        C
Can't you see me

D
Can't you see me at all

Em        C
Can't you see me

D
Can't you see me

D     D   Em     C      [strum each chord once]
Can't you see me at all


[Play the intro tab to the end]

I'll lay roses at your feet
Till you decide there is something great in you
I'll lay roses at your feet
Till you decide there is something great in you

La da da
La da da da da
We've only just begun to grieve the space
We've only just begun to grieve the space, the space

We've only just begun to grieve the space, the space
We've only just begun to

[End with;]

        grieve                  the
e|--------------------------------------------|
B|--------------3-----------3-----------------|
G|----------0-----------0-----------0---------|
D|------2-----------4-----------0-------------|
A|--------------------------------------------|
E|--------------------------------------------|

       space                    the
e|--------------------------------------------|
B|--------------------------------------------|
G|--------------0-----------0-----------------|
D|----------0-----------0-----------0---------|
A|------0-----------3-------------------------|
E|------------------------------2-------------|

       space
e|--------------------------------------------|
B|--------------------------------------------|
G|--------------------------------------------|
D|--------------------------------------------|
A|--------------------------------------------|
E|------0~------------------------------------| [Let it ring]
            

comments powered by Disqus
↑ Back to top | Smashing Pumpkins Chords for The Rose March. Lyrics for acoustic guitar and electric guitar. Tablatures and chords are parodies/interpretations of the original songs. You may use it for private study, scholarship, research or language learning purposes only