» » »

Smashing Pumpkins, The Everlasting Gaze Tabs (ver.3)

Artists:  A B C D E F G H I J K L M N O P Q R S T U V W X Y Z # 

The Everlasting Gaze Tabs (ver.3)

Smashing Pumpkins Tabs
Rating:
0/5 (0 votes)
The Everlasting Gaze lessons Tabs too difficult? Try these video lessons and learn fast
                |Guitar:
|------------------|------------------|-----------------|-----------------|
|------------------|------------------|-----------------|-----------------|
|------------------|------------------|-----------------|-----------------|
|------------------|------------------|-----------------|-----------------|
|-----2h3----------|------------------|-----2h3---------|-----------------|
|-0-0-----1---1-0--|------------------|-0-0-----1---1-0-|-------------12\\|
| 1 + 2 + 3 + 4 +    1 + 2 + 3 + 4 +    1 + 2 + 3 + 4 +   1 + 2 + 3 + 4 +
|
|Bass:
|------------------|------------------|-----------------|-----------------|
|------------------|------------------|-----9h10--------|-----------------|
|------------------|------------------|-7-7-----8---8-7\|\\---------------|
|------------------|------------------|-----------------|-------------12\\|
| 1 + 2 + 3 + 4 +    1 + 2 + 3 + 4 +    1 + 2 + 3 + 4 +   1 + 2 + 3 + 4 +


VERSE 1a:

|Guitar:
|------------------|---0-0-0-0-0-0-0--|------------------|---0-0-0---0-0-0-|
|------------------|---5-5-5-5-5-5-5--|------------------|---5-5-5---5-5-5-|
|------------------|------------------|------------------|-----------------|
|------------------|------------------|------------------|-----------------|
|-----2h3----------|------------------|-----2h3----------|-----------------|
|-0-0-----1---1-0--|------------------|-0-0-----1---1-0--|-----------------|
| 1 + 2 + 3 + 4 +    1 + 2 + 3 + 4 +    1 + 2 + 3 + 4 +    1 + 2 + 3 + 4 +
|
|Bass:
|------------------|------------------|------------------|-----------------|
|------------------|------------------|------------------|-----------------|
|-----2h3----------|------------------|-----2h3----------|-----------------|
|-0-0-----1---1-0--|---3---3-3/5-5-5--|-0-0-----1---1-0--|---3---3-3/5-5-5-|
| 1 + 2 + 3 + 4 +    1 + 2 + 3 + 4 +    1 + 2 + 3 + 4 +    1 + 2 + 3 + 4 +


|Guitar:
|------------------|---0-0-0-0-0-0-0--|------------------|-----------------|
|------------------|---5-5-5-5-5-5-5--|------------------|-----------------|
|------------------|------------------|------------------|-----------------|
|------------------|------------------|------------------|-----------------|
|-----2h3----------|------------------|-----2h3----------|-----------------|
|-0-0-----1---1-0--|------------------|-0-0-----1---1-0--|-----------------|
| 1 + 2 + 3 + 4 +    1 + 2 + 3 + 4 +    1 + 2 + 3 + 4 +    1 + 2 + 3 + 4 +
|
|Bass:
|------------------|------------------|------------------|-----------------|
|------------------|------------------|------------------|-----------------|
|-----2h3----------|------------------|-----2h3----------|-----------------|
|-0-0-----1---1-0--|---3---3-3/5-5-5--|-0-0-----1---1-0--|---3---3-3/5-5-5-|
| 1 + 2 + 3 + 4 +    1 + 2 + 3 + 4 +    1 + 2 + 3 + 4 +    1 + 2 + 3 + 4 +
            
Submit corrections

comments powered by Disqus
↑ Back to top | Smashing Pumpkins Tabs for The Everlasting Gaze. Lyrics for acoustic guitar and electric guitar. Tablatures and chords are parodies/interpretations of the original songs. You may use it for private study, scholarship, research or language learning purposes only