>
 >
The Everlasting Gaze

The Everlasting Gaze Bass Tabs

Smashing Pumpkins - The Everlasting Gaze chords, tabs, tablatures, lyrics

Guitar lessons | Add/correct | Request | Top 50 tabs Artists:  A B C D E F G H I J K L M N O P Q R S T U V W X Y Z 0-9

The Everlasting Gaze Bass Tabs – Smashing Pumpkins

CD, Sheet music, Poster

Do you like The Everlasting Gaze? Share with your friends now
Bass TabsTabsTabs v2Tabs v3


Tuning: Guitar C F Bb Eb G C (Standard tuned down 2 whole-steps)
Bass C F Bb Eb (Standard tuned down 2 whole-steps)


This tab is a replacement for my previous one with a slight error and an
extension of the ones already filed.
Both guitars and bass are using massive distortion and in the CHORUS
sections the guitars probably use a chorus pedal to achieve the synth effect
when live.


INTRO:

|Guitar:
|------------------|------------------|-----------------|-----------------|
|------------------|------------------|-----------------|-----------------|
|------------------|------------------|-----------------|-----------------|
|------------------|------------------|-----------------|-----------------|
|-----2h3----------|------------------|-----2h3---------|-----------------|
|-0-0-----1---1-0--|------------------|-0-0-----1---1-0-|-------------12\\|
| 1 + 2 + 3 + 4 +    1 + 2 + 3 + 4 +    1 + 2 + 3 + 4 +   1 + 2 + 3 + 4 +
|
|Bass:
|------------------|------------------|-----------------|-----------------|
|------------------|------------------|-----9h10--------|-----------------|
|------------------|------------------|-7-7-----8---8-7\|\\---------------|
|------------------|------------------|-----------------|-------------12\\|
| 1 + 2 + 3 + 4 +    1 + 2 + 3 + 4 +    1 + 2 + 3 + 4 +   1 + 2 + 3 + 4 +


VERSE 1a:

|Guitar:
|------------------|---0-0-0-0-0-0-0--|------------------|---0-0-0---0-0-0-|
|------------------|---5-5-5-5-5-5-5--|------------------|---5-5-5---5-5-5-|
|------------------|------------------|------------------|-----------------|
|------------------|------------------|------------------|-----------------|
|-----2h3----------|------------------|-----2h3----------|-----------------|
|-0-0-----1---1-0--|------------------|-0-0-----1---1-0--|-----------------|
| 1 + 2 + 3 + 4 +    1 + 2 + 3 + 4 +    1 + 2 + 3 + 4 +    1 + 2 + 3 + 4 +
|
|Bass:
|------------------|------------------|------------------|-----------------|
|------------------|------------------|------------------|-----------------|
|-----2h3----------|------------------|-----2h3----------|-----------------|
|-0-0-----1---1-0--|---3---3-3/5-5-5--|-0-0-----1---1-0--|---3---3-3/5-5-5-|
| 1 + 2 + 3 + 4 +    1 + 2 + 3 + 4 +    1 + 2 + 3 + 4 +    1 + 2 + 3 + 4 +


|Guitar:
|------------------|---0-0-0-0-0-0-0--|------------------|-----------------|
|------------------|---5-5-5-5-5-5-5--|------------------|-----------------|
|------------------|------------------|------------------|-----------------|
|------------------|------------------|------------------|-----------------|
|-----2h3----------|------------------|-----2h3----------|-----------------|
|-0-0-----1---1-0--|------------------|-0-0-----1---1-0--|-----------------|
| 1 + 2 + 3 + 4 +    1 + 2 + 3 + 4 +    1 + 2 + 3 + 4 +    1 + 2 + 3 + 4 +
|
|Bass:
|------------------|------------------|------------------|-----------------|
|------------------|------------------|------------------|-----------------|
|-----2h3----------|------------------|-----2h3----------|-----------------|
|-0-0-----1---1-0--|---3---3-3/5-5-5--|-0-0-----1---1-0--|---3---3-3/5-5-5-|
| 1 + 2 + 3 + 4 +    1 + 2 + 3 + 4 +    1 + 2 + 3 + 4 +    1 + 2 + 3 + 4 +


VERSE 1b:

|Guitar: TACET
|
|Bass:
|------------------|------------------|------------------|-----------------|
|------------------|------------------|------------------|-----------------|
|-----2h3----------|------------------|-----2h3----------|-----------------|
|-0-0-----1---1-0--|---3---3-3/5-5-5--|-0-0-----1---1-0--|---3---3-3/5-5-5-|
| 1 + 2 + 3 + 4 +    1 + 2 + 3 + 4 +    1 + 2 + 3 + 4 +    1 + 2 + 3 + 4 +


|Guitar:
|------------------|------------------|------------------|-------0-0-0-0-0-|
|------------------|------------------|------------------|-------5-5-5-5-5-|
|------------------|------------------|------------------|-----------------|
|------------------|------------------|------------------|-----------------|
|------------------|------------------|------------------|-----------------|
|------------------|------------------|------------------|-----------------|
| 1 + 2 + 3 + 4 +    1 + 2 + 3 + 4 +    1 + 2 + 3 + 4 +    1 + 2 + 3 + 4 +
|
|Bass:
|------------------|------------------|------------------|-----------------|
|------------------|------------------|------------------|-----------------|
|-----2h3----------|------------------|-----2h3----------|-----------------|
|-0-0-----1---1-0--|---3---3-3/5-5-5--|-0-0-----1---1-0--|---3---3-3/5-5-5-|
| 1 + 2 + 3 + 4 +    1 + 2 + 3 + 4 +    1 + 2 + 3 + 4 +    1 + 2 + 3 + 4 +


PRECHORUS 1a:

|Guitar:
|------------------|---0---0---0-0-0--|------------------|---0---0---0-0-0-|
|------------------|---5---3---3-3-3--|------------------|---5---3---3-3-3-|
|------------------|------------------|------------------|-----------------|
|------------------|------------------|------------------|-----------------|
|-----2h3----------|------------------|-----2h3----------|-----------------|
|-0-0-----1---1-0--|------------------|-0-0-----1---1-0--|-----------------|
| 1 + 2 + 3 + 4 +    1 + 2 + 3 + 4 +    1 + 2 + 3 + 4 +    1 + 2 + 3 + 4 +
|
|Bass:
|------------------|------------------|------------------|-----------------|
|------------------|------------------|------------------|-----------------|
|-----2h3----------|------------------|-----2h3----------|-----------------|
|-0-0-----1---1-0--|---3---3-3/5-5-5--|-0-0-----1---1-0--|---3---3-3/5-5-5-|
| 1 + 2 + 3 + 4 +    1 + 2 + 3 + 4 +    1 + 2 + 3 + 4 +    1 + 2 + 3 + 4 +


|Guitar:
|------------------|---0---0---0-0-0--|------------------|---0-0-0---0-0-0-|
|------------------|---5---3---3-3-3--|------------------|---5-5-5---5-5-5-|
|------------------|------------------|------------------|-----------------|
|------------------|------------------|------------------|-----------------|
|-----2h3----------|------------------|-----2h3----------|-----------------|
|-0-0-----1---1-0--|------------------|-0-0-----1---1-0--|-----------------|
| 1 + 2 + 3 + 4 +    1 + 2 + 3 + 4 +    1 + 2 + 3 + 4 +    1 + 2 + 3 + 4 +
|
|Bass:
|------------------|------------------|------------------|-----------------|
|------------------|------------------|------------------|-----------------|
|-----2h3----------|------------------|-----2h3----------|-----------------|
|-0-0-----1---1-0--|---3---3-3/5-5-5--|-0-0-----1---1-0--|---3---3-3/5-5-5-|
| 1 + 2 + 3 + 4 +    1 + 2 + 3 + 4 +    1 + 2 + 3 + 4 +    1 + 2 + 3 + 4 +


PRECHORUS 1b:

|Guitar:
|------------------|------------------|------------------|-----------------|
|------------------|------------------|------------------|-----------------|
|------------------|------------------|------------------|-----------------|
|------------------|------------------|------------------|-----------------|
|------------------|-----------7~~~~~-|------------------|-----------7~~~~-|
|-0-7---0-5---0-3--|---0-1---0--------|-0-7---0-5---0-3--|---0-1---0-------|
| 1 + 2 + 3 + 4 +    1 + 2 + 3 + 4 +    1 + 2 + 3 + 4 +    1 + 2 + 3 + 4 +
|
|Bass:
|------------------|------------------|------------------|-----------------|
|------------------|------------------|------------------|-----------------|
|------------------|-----------7~~~~~-|------------------|-----------7~~~~-|
|-0-7---0-5---0-3--|---0-1---0--------|-0-7---0-5---0-3--|---0-1---0-------|
| 1 + 2 + 3 + 4 +    1 + 2 + 3 + 4 +    1 + 2 + 3 + 4 +    1 + 2 + 3 + 4 +


|Guitar:
|------------------|
|------------------|
|------------------|
|------------------|
|------------------|
|-0-7---0-5---0-3--|
| 1 + 2 + 3 + 4 +
|
|Bass:
|------------------|
|------------------|
|------------------|
|-0-7---0-5---0-3--|
| 1 + 2 + 3 + 4 +


CHORUS 1:

|Guitar:
| G       D   Am     Am
|-0-0-0-0-0-0-0-0--|-0-0-0-0-0-0-0-0--|-0-0-0-0-0-0-0-0--|-0-0-0-0-0-0-0-0-|
|-0-0-0-0-0-0-0-0--|-3-3-3-3-3-3-3-3--|-0-0-0-0-0-0-0-0--|-0-0-0-0-0-0-0-0-|
|-0-0-0-0-0-0-0-0--|-2-2-2-2-2-2-2-2--|-2-2-2-2-2-2-2-2--|-2-2-2-2-2-2-2-2-|
|-0-0-0-0-0-0-0-0--|-0-0-0-0-0-0-0-0--|-2-2-2-2-2-2-2-2--|-2-2-2-2-2-2-2-2-|
|-x-x-x-x-x-x-x-x--|------------------|-0-0-0-0-0-0-0-0--|-0-0-0-0-0-0-0-0-|
|-3-3-3-3-3-3-3-3--|------------------|------------------|-----------------|
| 1 + 2 + 3 + 4 +    1 + 2 + 3 + 4 +    1 + 2 + 3 + 4 +    1 + 2 + 3 + 4 +
|
|Bass:
|------------------|------------------|------------------|-----------------|
|------------------|------------------|------------------|-----------------|
|------------------|-5-5-5-5-5-5-5-5--|------------------|-----------------|
|-3-3-3-3-3-3-3-3--|------------------|-5-5-5-5-5-5-5-5--|-5-5-5-5-5-5-5-5-|
| 1 + 2 + 3 + 4 +    1 + 2 + 3 + 4 +    1 + 2 + 3 + 4 +    1 + 2 + 3 + 4 +

|Guitar:
| G       D   Am     Am
|-0-0-0-0-0-0-0-0--|-0-0-0-0-0-0-0-0--|-0-0-0-0-0-0-0-0--|-0-0-0-0-0-0-0-0-|
|-0-0-0-0-0-0-0-0--|-3-3-3-3-3-3-3-3--|-0-0-0-0-0-0-0-0--|-0-0-0-0-0-0-0-0-|
|-0-0-0-0-0-0-0-0--|-2-2-2-2-2-2-2-2--|-2-2-2-2-2-2-2-2--|-2-2-2-2-2-2-2-2-|
|-0-0-0-0-0-0-0-0--|-0-0-0-0-0-0-0-0--|-2-2-2-2-2-2-2-2--|-2-2-2-2-2-2-2-2-|
|-x-x-x-x-x-x-x-x--|------------------|-0-0-0-0-0-0-0-0--|-0-0-0-0-0-0-0-0-|
|-3-3-3-3-3-3-3-3--|------------------|------------------|-----------------|
| 1 + 2 + 3 + 4 +    1 + 2 + 3 + 4 +    1 + 2 + 3 + 4 +    1 + 2 + 3 + 4 +
|
|Bass:
|------------------|------------------|------------------|-----------------|
|------------------|------------------|------------------|-----------------|
|------------------|-5-5-5-5-5-5-5-5--|------------------|-----------------|
|-3-3-3-3-3-3-3-3--|------------------|-5-5-5-5-5-5-5-5--|-5-5-5-5-5-5-5-5-|
| 1 + 2 + 3 + 4 +    1 + 2 + 3 + 4 +    1 + 2 + 3 + 4 +    1 + 2 + 3 + 4 +


|Guitar:
| Am       Am   G     D
|-0-0-0-0-0-0-0-0--|-0-0-0-0-0-0-0-0--|-0-0-0-0-0-0-0-0--|-0-0-0-0-0-0-0-0-|
|-0-0-0-0-0-0-0-0--|-0-0-0-0-0-0-0-0--|-0-0-0-0-0-0-0-0--|-3-3-3-3-3-3-3-3-|
|-2-2-2-2-2-2-2-2--|-2-2-2-2-2-2-2-2--|-0-0-0-0-0-0-0-0--|-2-2-2-2-2-2-2-2-|
|-2-2-2-2-2-2-2-2--|-2-2-2-2-2-2-2-2--|-0-0-0-0-0-0-0-0--|-0-0-0-0-0-0-0-0-|
|-0-0-0-0-0-0-0-0--|-0-0-0-0-0-0-0-0--|-x-x-x-x-x-x-x-x--|-----------------|
|------------------|------------------|-3-3-3-3-3-3-3-3--|-----------------|
| 1 + 2 + 3 + 4 +    1 + 2 + 3 + 4 +    1 + 2 + 3 + 4 +    1 + 2 + 3 + 4 +
|
|Bass:
|------------------|------------------|------------------|-----------------|
|------------------|------------------|------------------|-----------------|
|------------------|------------------|------------------|-5-5-5-5-5-5-5-5-|
|-5-5-5-5-5-5-5-5--|-5-5-5-5-5-5-5-5--|-3-3-3-3-3-3-3-3--|-----------------|
| 1 + 2 + 3 + 4 +    1 + 2 + 3 + 4 +    1 + 2 + 3 + 4 +    1 + 2 + 3 + 4 +

|Guitar:
| Am       Am   C     G
|-0-0-0-0-0-0-0-0--|-0-0-0-0-0-0-0-0--|-0-0-0-0-0-0-0-0--|-0-0-0-0-0-0-0-0-|
|-0-0-0-0-0-0-0-0--|-0-0-0-0-0-0-0-0--|-0-0-0-0-0-0-0-0--|-0-0-0-0-0-0-0-0-|
|-2-2-2-2-2-2-2-2--|-2-2-2-2-2-2-2-2--|-0-0-0-0-0-0-0-0--|-0-0-0-0-0-0-0-0-|
|-2-2-2-2-2-2-2-2--|-2-2-2-2-2-2-2-2--|-x-x-x-x-x-x-x-x--|-0-0-0-0-0-0-0-0-|
|-0-0-0-0-0-0-0-0--|-0-0-0-0-0-0-0-0--|-3-3-3-3-3-3-3-3--|-x-x-x-x-x-x-x-x-|
|------------------|------------------|------------------|-3-3-3-3-3-3-3-3-|
| 1 + 2 + 3 + 4 +    1 + 2 + 3 + 4 +    1 + 2 + 3 + 4 +    1 + 2 + 3 + 4 +
|
|Bass:
|------------------|------------------|------------------|-----------------|
|------------------|------------------|------------------|-----------------|
|------------------|------------------|-3-3-3-3-3-3-3-3--|-5-5-5-2-2-2-2-2-|
|-5-5-5-5-5-5-5-5--|-5-5-5-5-5-5-5-5--|------------------|-----------------|
| 1 + 2 + 3 + 4 +    1 + 2 + 3 + 4 +    1 + 2 + 3 + 4 +    1 + 2 + 3 + 4 +


|Guitar:
| C       Am   G     D
|-0-0-0-0-0-0-0-0--|-0-0-0-0-0-0-0-0--|-0-0-0-0-0-0-0-0--|-0-0-0-0-0-0-0-0-|
|-0-0-0-0-0-0-0-0--|-0-0-0-0-0-0-0-0--|-0-0-0-0-0-0-0-0--|-3-3-3-3-3-3-3-3-|
|-0-0-0-0-0-0-0-0--|-2-2-2-2-2-2-2-2--|-0-0-0-0-0-0-0-0--|-2-2-2-2-2-2-2-2-|
|-x-x-x-x-x-x-x-x--|-2-2-2-2-2-2-2-2--|-0-0-0-0-0-0-0-0--|-0-0-0-0-0-0-0-0-|
|-3-3-3-3-3-3-3-3--|-0-0-0-0-0-0-0-0--|-x-x-x-x-x-x-x-x--|-----------------|
|------------------|------------------|-3-3-3-3-3-3-3-3--|-----------------|
| 1 + 2 + 3 + 4 +    1 + 2 + 3 + 4 +    1 + 2 + 3 + 4 +    1 + 2 + 3 + 4 +
|
|Bass:
|------------------|------------------|------------------|-----------------|
|------------------|------------------|------------------|-----------------|
|------------------|-3-3-3------------|------------------|-5-5-5-5-5-5-5-5-|
|-3-3-3-3-3-3-3-3--|-------5-5-5-5-5--|-3-3-3-3-3-3-3-3--|-----------------|
| 1 + 2 + 3 + 4 +    1 + 2 + 3 + 4 +    1 + 2 + 3 + 4 +    1 + 2 + 3 + 4 +


|Guitar:
| Am
|-0-0-0-0-0-0-0-0--|---0-0-0-0-0-0-0--|
|-0-0-0-0-0-0-0-0--|---5-5-5-5-5-5-5--|
|-2-2-2-2-2-2-2-2--|------------------|
|-2-2-2-2-2-2-2-2--|------------------|
|-0-0-0-0-0-0-0-0--|------------------|
|------------------|------------------|
| 1 + 2 + 3 + 4 +    1 + 2 + 3 + 4 +
|
|Bass:
|------------------|------------------|
|------------------|------------------|
|------------------|------------------|
|-5-5-5-5-5-5-5-5--|------------------|
| 1 + 2 + 3 + 4 +    1 + 2 + 3 + 4 +


VERSE 2a:  Same as VERSE 1a

VERSE 2b:  Same as VERSE 1b.  When played live, James plays the bassline.

PRECHORUS 2a: Same as PRECHORUS 2a

PRECHORUS 2b: Same as PRECHORUS 2b

CHORUS 2: Same as CHORUS 1

BRIDGE:

|Guitar:
|------------------|
|------------------|
|------------------|  Remaining bars Tacet (Vocal Solo)
|-2~~~~~~~~--------|
|-2~~~~~~~~--------|
|-0~~~~~~~~--------|
| 1 + 2 + 3 + 4 +
|
|Bass:
|------------------|
|------------------|  Remaining bars Tacet (Vocal Solo)
|------------------|
|-0~~~~~~~~--------|
| 1 + 2 + 3 + 4 +

EXIT 1a:

Guitar:
|------------------|------------------|------------------|-----------------|
|------------------|------------------|------------------|-----------------|
|------------------|------------------|------------------|-----------------|
|------------------|------------------|------------------|-----------------|
|------------------|-----------7~~~~~-|------------------|-----------7~~~~-|
|-0-7---0-5---0-3--|---0-1---0--------|-0-7---0-5---0-3--|---0-1---0-------|
| 1 + 2 + 3 + 4 +    1 + 2 + 3 + 4 +    1 + 2 + 3 + 4 +    1 + 2 + 3 + 4 +
|
|Bass:
|------------------|------------------|------------------|-----------------|
|------------------|------------------|------------------|-----------------|
|------------------|-----------7~~~~~-|------------------|-----------7~~~~-|
|-0-7---0-5---0-3--|---0-1---0--------|-0-7---0-5---0-3--|---0-1---0-------|
  1 + 2 + 3 + 4 +    1 + 2 + 3 + 4 +    1 + 2 + 3 + 4 +    1 + 2 + 3 + 4 +


|Guitar:
|------------------|------------------|------------------|-----------------|
|------------------|------------------|------------------|-----------------|
|------------------|------------------|------------------|-----------------|
|------------------|------------------|------------------|-----------------|
|------------------|-----------7~~~~~-|------------------|-----------7~~~~-|
|-0-7---0-5---0-3--|---0-1---0--------|-0-7---0-5---0-3--|---0-1---0-------|
| 1 + 2 + 3 + 4 +    1 + 2 + 3 + 4 +    1 + 2 + 3 + 4 +    1 + 2 + 3 + 4 +
|
|Bass:
|------------------|------------------|------------------|-----------------|
|------------------|------------------|------------------|-----------------|
|------------------|-----------7~~~~~-|------------------|-----------7~~~~-|
|-0-7---0-5---0-3--|---0-1---0--------|-0-7---0-5---0-3--|---0-1---0-------|
| 1 + 2 + 3 + 4 +    1 + 2 + 3 + 4 +    1 + 2 + 3 + 4 +    1 + 2 + 3 + 4 +


|Guitar:
|------------------|------------------|------------------|-----------------|
|------------------|------------------|------------------|-----------------|
|------------------|------------------|------------------|-----------------|
|------------------|------------------|------------------|-----------------|
|------------------|-----------7~~~~~-|------------------|-----------7~~~~-|
|-0-7---0-5---0-3--|---0-1---0--------|-0-7---0-5---0-3--|---0-1---0-------|
| 1 + 2 + 3 + 4 +    1 + 2 + 3 + 4 +    1 + 2 + 3 + 4 +    1 + 2 + 3 + 4 +
|
|Bass:
|------------------|------------------|------------------|-----------------|
|------------------|------------------|------------------|-----------------|
|------------------|-----------7~~~~~-|------------------|-----------7~~~~-|
|-0-7---0-5---0-3--|---0-1---0--------|-0-7---0-5---0-3--|---0-1---0-------|
| 1 + 2 + 3 + 4 +    1 + 2 + 3 + 4 +    1 + 2 + 3 + 4 +    1 + 2 + 3 + 4 +


|Guitar:
|------------------|------------------|
|------------------|------------------|
|------------------|------------------|
|------------------|------------------|
|------------------|------------------|
|-0-7---0-5---0-3--|-~~~~~~~~~~~~~~~~-|
| 1 + 2 + 3 + 4 +    1 + 2 + 3 + 4 +
|
|Bass:
|------------------|------------------|
|------------------|------------------|
|------------------|------------------|
|-0-7---0-5---0-3--|-~~~~~~~~~~~~~~~~-|
| 1 + 2 + 3 + 4 +    1 + 2 + 3 + 4 +


EXIT 1b:
|------------------|-----------------|-------------------|-----------------|
|------------------|-----------------|-------------------|-----------------|
|------------------|-----------------|-------------------|-----------------|
|------------------|-----------------|-------------------|-----------------|
|------------------|-----------------|-------------------|-----------------|
|-0-0---0-0---0-0--|--0-0---0-0-0-0--|--0-0---0-0---0-0--|---0-0---0-0-0-0-|
| 1 + 2 + 3 + 4 +     1 + 2 + 3 + 4 +   1 + 2 + 3 + 4 +    1 + 2 + 3 + 4 +
|
|Bass:
|------------------|-----------------|-------------------|-----------------|
|------------------|-----------------|-------------------|-----------------|
|------------------|-----------------|-------------------|-----------------|
|-0-0---0-0---0-0--|--0-0---0-0-0-0--|--0-0---0-0---0-0--|---0-0---0-0-0-0-|
| 1 + 2 + 3 + 4 +     1 + 2 + 3 + 4 +   1 + 2 + 3 + 4 +    1 + 2 + 3 + 4 +

|Guitar:
|------------------|------------------|------------------|-----------------|
|------------------|------------------|------------------|-----------------|
|------------------|------------------|------------------|-----------------|
|------------------|------------------|------------------|-----------------|
|------------------|------------------|------------------|-----------------|
|-0-0---0-0---0-0--|--0-0---0-0-0-0---|-0-0---0-0---0-0--|---0-0---0-0-0-0-|
| 1 + 2 + 3 + 4 +     1 + 2 + 3 + 4 +   1 + 2 + 3 + 4 +    1 + 2 + 3 + 4 +
|
|Bass:
|------------------|------------------|------------------|-----------------|
|------------------|------------------|------------------|-----------------|
|------------------|------------------|------------------|-----------------|
|-0-0---0-0---0-0--|---0-0---0-0-0-0--|-0-0---0-0---0-0--|---0-0---0-0-0-0-|
| 1 + 2 + 3 + 4 +    1 + 2 + 3 + 4 +    1 + 2 + 3 + 4 +    1 + 2 + 3 + 4 +


EXIT 1c:

|Guitar:
|------------------|------------------|------------------|-----------------|
|------------------|------------------|------------------|-----------------|
|------------------|------------------|------------------|-----------------|
|---------7~~~-----|------------------|---------7~~~-----|-----------------|
|------------------|-5h7---5h7---3p2--|------------------|-5h7---5h7---8p7-|
|-0-0---0-----0-0--|-----0-----0------|-0-0---0-----0-0--|-----0-----0-----|
| 1 + 2 + 3 + 4 +    1 + 2 + 3 + 4 +    1 + 2 + 3 + 4 +    1 + 2 + 3 + 4 +
|
|Bass:
|------------------|------------------|------------------|-----------------|
|------------------|------------------|------------------|-----------------|
|------------------|------------------|------------------|-----------------|
|-0-0---0-0---0-0--|---0-0---0-0-0-0--|-0-0---0-0---0-0--|---0-0---0-0-0-0-|
  1 + 2 + 3 + 4 +    1 + 2 + 3 + 4 +    1 + 2 + 3 + 4 +    1 + 2 + 3 + 4 +


|Guitar:
|------------------|------------------|------------------|-----------------|
|------------------|------------------|------------------|-----------------|
|------------------|------------------|------------------|-----------------|
|---------7~~~-----|------------------|---------7~~~-----|-----------------|
|------------------|-5h7---5h7---3p2--|------------------|-5h7---5h7---8p7-|
|-0-0---0-----0-0--|-----0-----0------|-0-0---0-----0-0--|-----0-----0-----|
| 1 + 2 + 3 + 4 +    1 + 2 + 3 + 4 +    1 + 2 + 3 + 4 +    1 + 2 + 3 + 4 +
|
|Bass:
|------------------|------------------|------------------|-----------------|
|------------------|------------------|------------------|-----------------|
|------------------|------------------|------------------|-----------------|
|-0-0---0-0---0-0--|---0-0---0-0-0-0--|-0-0---0-0---0-0--|---0-0---0-0-0-0-|
| 1 + 2 + 3 + 4 +    1 + 2 + 3 + 4 +    1 + 2 + 3 + 4 +    1 + 2 + 3 + 4 +


|Guitar:
|------------------|------------------|------------------|-----------------|
|------------------|------------------|------------------|-----------------|
|------------------|------------------|------------------|-----------------|
|---------7~~~-----|------------------|---------7~~~-----|-----------------|
|------------------|-5h7---5h7---3p2--|------------------|-5h7---5h7---8p7-|
|-0-0---0-----0-0--|-----0-----0------|-0-0---0-----0-0--|-----0-----0-----|
| 1 + 2 + 3 + 4 +    1 + 2 + 3 + 4 +    1 + 2 + 3 + 4 +    1 + 2 + 3 + 4 +
|
|Bass:
|------------------|------------------|------------------|-----------------|
|------------------|------------------|------------------|-----------------|
|------------------|------------------|------------------|-----------------|
|-0-0---0-0---0-0--|---0-0---0-0-0-0--|-0-0---0-0---0-0--|---0-0---0-0-0-0-|
| 1 + 2 + 3 + 4 +    1 + 2 + 3 + 4 +    1 + 2 + 3 + 4 +    1 + 2 + 3 + 4 +


|Guitar:
|------------------|------------------|------------------|-----------------|
|------------------|------------------|------------------|-----------------|
|------------------|------------------|------------------|-----------------|
|---------7~~~-----|------------------|---------7~~~-----|-----------------|
|------------------|-5h7---5h7---3p2--|------------------|-5h7---5h7---8p7-|
|-0-0---0-----0-0--|-----0-----0------|-0-0---0-----0-0--|-----0-----0-----|
| 1 + 2 + 3 + 4 +    1 + 2 + 3 + 4 +    1 + 2 + 3 + 4 +    1 + 2 + 3 + 4 +
|
|Bass:
|------------------|------------------|------------------|-----------------|
|------------------|------------------|------------------|-----------------|
|------------------|------------------|------------------|-----------------|
|-0-0---0-0---0-0--|---0-0---0-0-0-0--|-0-0---0-0---0-0--|---0-0---0-0-0-0-|
| 1 + 2 + 3 + 4 +    1 + 2 + 3 + 4 +    1 + 2 + 3 + 4 +    1 + 2 + 3 + 4 +


END CHORD:

|Guitar:
|-----------||
|-----------||
|-9-\-------||
|-9-\--(2)--||
|-7-\--(2)--||
|-7-\--(0)--||
|
|Bass:
|-----------||
|-----------||
|-----------||
|-12\--(0)--||





Comments


Popular Smashing Pumpkins tabs & chords
A Night Like This 1 Bass Tabs
Heavy Metal Machine Bass Tabs
Let Me Give The World To You Bass Tabs
Let Me Give The World To You 1 Tabs
Mother 1 Tabs
Starz Tabs
Stumbleine Tabs
Thru The Eyes Of Ruby Tabs
We Only Come Out At Night 1 Tabs
Luna Ukulele


Song lyrics



↑ Back to top | Tablatures and chords are parodies/interpretations of the original songs. You may use it for private study, scholarship, research or language learning purposes only
© 2014 AZChords.com Contact us | Privacy policy | DMCA | Add/correct tabs | Request tabs | Top 50 tabs