» » »

The Everlasting Gaze Tabs (ver.2)

Artists:  A B C D E F G H I J K L M N O P Q R S T U V W X Y Z # 

The Everlasting Gaze Tabs (ver.2)

Smashing Pumpkins
Rating:
0/5 (0 votes)

Hard to play? Try these video lessons and learn fast.
                Tuning: C F Bb Eb G C (Drop Db one step down)

Guitar 1: Billy
Guitar 2: James
Bass: D´arcy    


Intro:

Billy
|-------------------|
|-------------------| 
|-------------------| 
|-------------------|
|-------------------|
|--0-0-7h8-1--1-0---|


Billy
|-------------------|
|-------------------| 
|-------------------| 
|-------------------|
|-------------------|
|--0-0-7h8-1--1-0---|

James 
|-------------------------|
|-------------------------| 
|-------------------------| 
|-------------------------|
|-------------------------|
|--0-0-7h8-1--1-0---13\---|

D´arcy
|-------------------------|
|------8h10---------------|
|--7-7-----8--8-7---------|
|-------------------13\---|


Verse:

Billy + James
|-------------------0-0-0-0-0-0-0---|
|-------------------5-5-5-5-5-5-5---|
|-------------------2-2-2-2-2-2-2---| 3 times
|-----------------------------------|
|-----------------------------------|
|--0-0-7h8-1--1-0-------------------|

D´arcy
|----------------------------------|
|------9h10------------------------| 3 times
|--7-7-----8--8-7------------------|
|-------------------3-3/5--5-5-5---|
              

Billy + James
|-------------------|
|-------------------|
|-------------------| 
|-------------------|
|-------------------|
|--0-0-7h8-1--1-0---|

D´arcy
|----------------------------------|
|------9h10------------------------| 
|--7-7-----8--8-7------------------|
|-------------------3-3/5--5-5-5---|


Now only Bass


D´arcy
|----------------------------------|
|------9h10------------------------| 3 times
|--7-7-----8--8-7------------------|
|-------------------3-3/5--5-5-5---|



Billy + James
|---------------------0-0-0-0-0-0-0---|
|---------------------5-5-5-5-5-5-5---|
|---------------------2-2-2-2-2-2-2---|
|-------------------------------------|
|-------------------------------------|
|-------------------------------------|

D´arcy
|-------------------------------------|
|------9h10---------------------------| 
|--7-7-----8--8-7---------------------|
|----------------------3-3/5--5-5-5---|
                     

Verse:

Billy + James
|----------------------0-0---0-0-0---|
|----------------------5-3---3-3-3---|
|------------------------------------| 3 times
|------------------------------------|
|------------------------------------|
|--0-0-7h8-1--1-0--------------------|

D´arcy
|-------------------------------------| 
|------9h10---------------------------| 3 times
|--7-7-----8--8-7---------------------|
|----------------------3-3/5--5-5-5---|
                      
                   
Billy + James
|---------------------0-0-0-0-0-0-0---|
|---------------------5-5-5-5-5-5-5---|
|-------------------------------------|
|-------------------------------------|
|-------------------------------------|
|--0-0-7h8----1--1-0------------------|

D´arcy
|--------------------/7-7-7-7-7-7-7---|
|------9h10---------------------------| 
|--7-7-----8--8-7---------------------|
|-------------------------------------|


Pre – Chorus:

Billy + James + D´arcy
|--------------------------------|
|--------------------------------|
|--------------------------------| 2 times
|--------------------------/5~---| 
|--------------------------------|
|--0-7~--0-5~--0-3~---0--1-------|


Billy + James + D´arcy
|---------------------|
|---------------------|
|---------------------|
|---------------------|
|---------------------|
|--0-7~--0-5~--0-3~---|


Chorus:

James and Billy use a special Roland reverb pedal, unfortunately I
don´t know exactly which one.  

Billy + James
|----------------------------------------------------|
|----------------------------------------------------|
|------------------5-5-5-5-5-5-5-5-------------------|
|--3-3-3-3-3-3-3-3-5-5-5-5-5-5-5-5-5-5-5-5-5-5-5-5---|
|--3-3-3-3-3-3-3-3-3-3-3-3-3-3-3-3-5-5-5-5-5-5-5-5---|
|--3-3-3-3-3-3-3-3-----------------5-5-5-5-5-5-5-5---|


Billy + James
|--------------------|
|--------------------|
|--------------------|
|--5-5-5-5-5-5-5-5---|
|--5-5-5-5-5-5-5-5---|
|--5-5-5-5-5-5-5-5---|

Repeat this first Chorus part once

Billy + James
|--------------------------------------------------|
|--------------------------------------------------|
|--------------------------------------------------|
|--5-5-5-5-5-5-5-5-5-5-5-5-5-5-5-3-3-3-3-3-3-3-3---|
|--5-5-5-5-5-5-5-5-5-5-5-5-5-5-5-3-3-3-3-3-3-3-3---|
|--5-5-5-5-5-5-5-5-5-5-5-5-5-5-5-3-3-3-3-3-3-3-3---|


Billy + James
|----------------------------------------------------|
|----------------------------------------------------|
|--5-5-5-5-5-5-5-5-----------------------------------|
|--5-5-5-5-5-5-5-5-5-5-5-5-5-5-5-5-5-5-5-5-5-5-5-5---|
|--3-3-3-3-3-3-3-3-5-5-5-5-5-5-5-5-5-5-5-5-5-5-5-5---|
|------------------5-5-5-5-5-5-5-5-5-5-5-5-5-5-5-5---|


Billy + James
|------------------------------------------------------------|
|------------------------------------------------------------|
|--3-3-3-3-3-3-3-3-10-10-10-10-10-10-10-10-------------------|
|--3-3-3-3-3-3-3-3-10-10-10-10-10-10-10-10-5-5-5-5-5-5-5-5---|
|--1-1-1-1-1-1-1-1-8--8--8--8--8--8--8--8--5-5-5-5-5-5-5-5---|
|------------------------------------------5-5-5-5-5-5-5-5---|


Billy + James
|----------------------------------------------------|
|----------------------------------------------------|
|--7-7-7-7-7-7-7-7-----------------5-5-5-5-5-5-5-5---|
|--7-7-7-7-7-7-7-7-3-3-3-3-3-3-3-3-5-5-5-5-5-5-5-5---|
|--5-5-5-5-5-5-5-5-3-3-3-3-3-3-3-3-3-3-3-3-3-3-3-3---|
|------------------3-3-3-3-3-3-3-3-------------------|


Billy + James
|-----------------------0-0-0-0-0-0-0---|
|-----------------------5-5-5-5-5-5-5---|
|---------------------------------------|
|--5-5-5-5-5-5-5-5----------------------|
|--5-5-5-5-5-5-5-5----------------------|
|--5-5-5-5-5-5-5-5----------------------|
                        ^reverb off


Verse: same

Pre-Chorus: same

Chorus: same

Billy + James
|-----------------------------|
|-----------------------------|
|--9\\\\----------------------|
|--9\\\\----------------------|
|--7\\\\-slide up the neck----|
|--7\\\\----------------------|
 

Breakdown:

Only vocals now

"We all want to hold in the everlasting gaze
Enchanted in the rapture of his sentimental sway
But underneath the wheels lie the skulls of every c.o.g.
The fickle fascination of an everlasting god

You know I´m not dead"


Outro:

Billy + James + D´arcy
|--------------------------------|
|--------------------------------|
|--------------------------------| 6 times
|--------------------------/5~---| 
|--------------------------------|
|--0-7~--0-5~--0-3~---0--1-------|


Billy + James + D´arcy
|---------------------|
|---------------------|
|---------------------|
|---------------------|
|---------------------|
|--0-7~--0-5~--0-3~---|


Billy + James + D´arcy
|------------------------------------|
|------------------------------------|
|------------------------------------| 4 times
|------------------------------------|
|------------------------------------|
|--0-0---0-0---0-0---0-0---0-0-0-0---|


The next two parts are played in this progression
4 times:

Billy
|-----------------------------------------|
|-----------------------------------------|
|-----------------------------------------|
|----------5~~~-----------------6p5-------|
|-------------------3h5---3h5-------------|
|--0-0---0------0-0-----------------0-0---|

James
|-----------------------------------------|
|-----------------------------------------|
|-----------------------------------------|
|----------5~~----------------------------|
|-----------------------------------------|
|--0-0---0-----0-0-----0-----0------0-0---|

D´arcy
|-----------------------------------------|
|-----------------------------------------|
|-----------------------------------------|
|--0-0---0-0---0-0---0-0---0-0-0-0--0-0---|



Billy
|------------------------------|
|------------------------------|
|------------------------------|
|----5~~-----------------------|
|------------3h5---3h5---6p5---|
|--0-----0-0-------------------|

James
|------------------------------|
|------------------------------|
|------------------------------|
|----5~~-----------------------|
|------------------------------|
|--0-----0-0-----0-----0-------|

D´arcy
|------------------------------|
|------------------------------|
|------------------------------|
|--0-0---0-0---0-0-0-0---------|



End on:

Billy + James
|-----------------------------|
|-----------------------------|
|--9\\\\----------------------|
|--9\\\\----------------------|
|--7\\\\-slide up the neck----|
|--7\\\\----------------------|
 

This was the tab, I wasn´t sure how to place the
vocals so I added them with the parts over which
they´re sung. Just try to get it right.

Vocals:

1st Verse:

You know I´m not dead
You know I´m...you know I´m not dead
You know I´m not dead
Now you know where I´ve been
As you sleeped
Torn I am
Weighted down
Patiently
Born of love
You know I´m... you know I´m not dead

Pre – Chorus:

I´m just living in my head
Forever waiting
On the ways of you desire (sung into Chorus)

Chorus: (sung slowly)

You always find a way
And thru it all
Into us all you move
Forgotten touch
Forbidden thought
We can never have enough

You know I´m not dead

Verse:

You know...you know I´m not dead
You know I´m not dead
Found below
Where the creatures scream
Stranglehold
A god machine
Begging to
Tear us out
Worn as hope
You know I´m...you know I´m not dead

Pre – Chorus:

I´m just the tears inside your head
Forever waiting
On the was of your desire (sung into chorus)

Chorus: (sung slowly)

You always find a way
And thru it all
Into us all you move
Forgotten touch
Forbidden thought
We can never have enough

You know I´m not dead

Breakdown: (only Billy´s voice now)

We all want to hold in the everlasting gaze
Enchanted in the rapture of his sentimental sway
But underneath the wheels lie the skulls of every c.o.g.
The fickle fascination of an everlasting god

You know I´m not dead

Outro:

I´m just living in my head
Forever waiting
Forever waiting on cruel death
You know I´m not dead
I´m just living for myself
Forever waiting
You know I´m not dead
You know I´m not dead
You know I´m not dead
You know I´m not dead


Rate this please!


"Lovers walk asleep
Strangers on the street
Strangers when we meet"
            
Hard to play? Try these video lessons and learn fast. | Correct




comments powered by Disqus
↑ Back to top | Tablatures and chords are parodies/interpretations of the original songs. You may use it for private study, scholarship, research or language learning purposes only