» » »

Smashing Pumpkins, Shame Tabs (ver.3)

Artists:  A B C D E F G H I J K L M N O P Q R S T U V W X Y Z # 

Shame Tabs (ver.3)

Smashing Pumpkins Tabs
Rating:
0/5 (0 votes)
Shame lessons Tabs too difficult? Try these video lessons and learn fast
                (Live)
-------------------------------------------------------------------------------
-------------------------------------------------------------------------------

Tuning:1/2 Down

Live from the secret gig at the Sydney shipping terminal, this is an awesome
awesome version of shame so much better than the recording.
there is so much happening in this song it almost sounds like there are 3 guitars
wouldn't surprise me the band they had in the adore era was massive.
anyway this is James and Billy put together

|---------------------------------------------------------------------------|
|---------------------------------------------------------------------------|
|--------------------2/4~--------------------2/4--9~---------------2/4~h4/7-|
|--2/4-h5b~-4\2~---2-------2/4-h5b~--4\2~--2----------2/4~-h5b~--2----------|
|----------------2------------------------2---------------------2-----------|
|---------------------------------------------------------------------------|
                                                                   Your Gonna
|---------------------------------------------------------------------------|
|---------------------------------------------------------------------------|
|-------------------2/4~~-----------------------2/4~--------------------2/4~|
|--2/4-h5b~-4\2~--2-------------2/4-h5b~-4\2~-2---------2/4-h5b~-4\2~-2-----|
|----------------2---------------------------2-----------------------2------|
|---------------------------------------------------------------------------|
                                                                     Don't let
|---------------------------------------------------------------------------|
|---------------------------------------------------------------------------|
|--------------------2/4~--------------------2/4-------------------2/4---2/4|
|--2/4-h5b~-4\2~---2------2/4-h5b~--4\2~---2------2/4-h5b~-4\2~--2------2---|
|----------------2-----------------------2---------------------2------2-----|
|---------------------------------------------------------------------------|
    Sh Sh        Sh Sh         Shame
|---------------------------------------------------------------------------|
|----2-----------0----------2----------0------------------------------------|
|---0---0-------0---0------0---0------0---0---------------------------------|
|--2-----2-----4-----4----2-----2----4-----4--------------------------------|
|-2-------2---2-------2--2-------2--2-------2-------------------------------|
|---------------------------------------------------------------------------|
    Sh Sh       Sh Sh         Shame
|---------------------------------------------------------------------------|
|----2-----------0----------2----------0------------------------------------|
|---0---0-------0---0------0---0------0-----0-------------------------------|
|--2-----2-----4-----4----2-----2----4------2-------------------------------|
|-2-------2---2-------2--2-------2--2-------2-------------------------------|
|---------------------------------------------------------------------------|

|---------------------------------------------------------------------------|
|---------------------------------------------------------------------------|
|-------------------4-5b~-------------------2/4~-------------------2/4~-----|
|--2/4-h5b~-4\2~--2---------2/4-h5b~-4\2~-2--------2/4-h5b~-4\2~-2----------|
|----------------2-----------------------2----------------------2-----------|
|---------------------------------------------------------------------------|

|---------------------------------------------------------------------------|
|---------------------------------------------------------------------------|
|-------------------2/4b~-------------------2/4~-------------------2/4~-----|
|--2/4-h5b~-4\2~--2---------2/4-h5b~-4\2~-2--------2/4-h5b~-4\2~-2----------|
|----------------2-----------------------2----------------------2-----------|
|---------------------------------------------------------------------------|
    Sh Sh   Sh Sh   Shame
|---------------------------------------------------------------------------|
|----2-----------0----------2----------0------------------------------------|
|---0---0-------0---0------0---0------0---0---------------------------------|
|--2-----2-----4-----4----2-----2----4-----4--------------------------------|
|-2-------2---2-------2--2-------2--2-------2-------------------------------|
|---------------------------------------------------------------------------|
    Sh Sh   Sh Sh   Shame
|---------------------------------------------------------------------------|
|----2-----------0----------2----------0------------------------------------|
|---0---0-------0---0------0---0------0-------0-----------------------------|
|--2-----2-----4-----4----2-----2----4-------2------------------------------|
|-2-------2---2-------2--2-------2--2-------2-------------------------------|
|---------------------------------------------------------------------------|

    SSSSSSSSShhhhhhhhhhhhhhaaaaaaaaaaaaaaaaammmmmmmmmeeeeeeeeeeeee-aaaammmmee
|---------------------------------------------------------------------------|
|---------------------------------------------------------------------------|
|-------------------4-4-4-4-4-4-4-4-------------------4-4-4-4-4-4-4-4-------|
|--2-2-2-2-2-2-2-2--4-4-4-4-4-4-4-4--2-2-2-2-2-2-2-2--4-4-4-4-4-4-4-4-------|
|--2-2-2-2-2-2-2-2--2-2-2-2-2-2-2-2--2-2-2-2-2-2-2-2--2-2-2-2-2-2-2-2-------|
|--0-0-0-0-0-0-0-0-------------------0-0-0-0-0-0-0-0------------------------|
  Shame
|-----------------------|
|-----------------------|
|-----------------------|
|-2~--------%---------%-|
|-2~--------------------|
|-0~--------------------|

|-----2--------9----7p5------------------------------------------------------------------|
|----3-----------5~-----5~---h7~-7p5-7b-----12/15----------------------------------------|
|---2--------------------------------------------12h14~---h11--h12~-p11---h9---h7--h6----|
|--0-------------------------------------------------------------------------------------|
|----------------------------------------------------------------------------------------|
|----------------------------------------------------------------------------------------|


|-----------------------------------------------------------------------------------------|
|--8/10-------------------------h10~---------17~-17bp14---15~------14-16-19---14-15~------|
|------12h11~-----12~-11-9-7--9~h9~-------------------------14~---------------------------|
|--------------------------------------------------------------h14~--------14~------------|
|-----------------------------------------------------------------------------------------|
|-----------------------------------------------------------------------------------------|

|-----------------------------------------------------------------------------------------|
|----14h15--h19--22b~-22bp19~--15\14~---------------15-14~---14--14/15\14--14-14b~14--14--|
|-------------------------------------12h14~--------14-14~-14--14--------14---14b~--14--14|
|-14~---------------------------------------15b~------------------------------------------|
|-----------------------------------------------------------------------------------------|
|-----------------------------------------------------------------------------------------|

|--------------------------------------------------------------------------------------------|
|-14/-15/-17\-15\-14-----15~-----14~-15-/17-/19-/22-/19-/17-/15-/17--15h19-19h20-15h19-19h20-|
|--------------------14~-----14~-------------------------------------------------------------|
|--------------------------------------------------------------------------------------------|
|--------------------------------------------------------------------------------------------|
|--------------------------------------------------------------------------------------------|

|------------------------------------------------------------------------------------|
|--22b~-22b~-22~-22b~-22b~-22~--14-14/15-/17-/19-/20--15-/17-/19-/20--14/-15/-17-/---|
|------------------------------------------------------------------------------------|
|------------------------------------------------------------------------------------|
|------------------------------------------------------------------------------------|
|------------------------------------------------------------------------------------|

|----------------17p15-15p14-14p12-12p10---------------------------------------------|
|------------------------------------------------------------------------------------|
|-12h11~---9/7~----------------------------------------------------------------------|
|------------------------------------------------------------------------------------|
|------------------------------------------------------------------------------------|
|------------------------------------------------------------------------------------|

|--------------------------------------------------------22-21-----------------------|
|------------2p0---------3-5-7-9-10-11-12-14-16-17---19------------------------------|
|---------------h3/5\3p2-------------------------------------------------------------|
|-0h2h3h2p0--------------------------------------------------------------------------|
|------------------------------------------------------------------------------------|
|------------------------------------------------------------------------------------|
Thats the main part of the solo, there is another minute of them jaming along just playing
little bits at here and there sorta doing a call and respond with the guitars.

    Sh Sh   Sh Sh   Shame
|---------------------------------------------------------------------------|
|----2-----------0----------2----------0------------------------------------|
|---0---0-------0---0------0---0------0---0---------------------------------|
|--2-----2-----4-----4----2-----2----4-----4--------------------------------|
|-2-------2---2-------2--2-------2--2-------2-------------------------------|
|---------------------------------------------------------------------------|
    SSSSSSSSShhhhhhhhhhhhhhaaaaaaaaaaaaaaaaaaaaaaaaaaaaaaaaaaaaaaammmmee
|---------------------------------------------------------------------------|
|---------------------------------------------------------------------------|
|-------------------4-4-4-4-4-4-4-4-------------------4-4-4-4-4-4-4-4-------|
|--2-2-2-2-2-2-2-2--4-4-4-4-4-4-4-4--2-2-2-2-2-2-2-2--4-4-4-4-4-4-4-4-------|
|--2-2-2-2-2-2-2-2--2-2-2-2-2-2-2-2--2-2-2-2-2-2-2-2--2-2-2-2-2-2-2-2-------|
|--0-0-0-0-0-0-0-0-------------------0-0-0-0-0-0-0-0------------------------|
    SSSSSSSSShhhhhhhhhhhhhhaaaaaaaaaaaaaaaaaaaaaaaaaaaaaaaaaaaaaaammmmee
|---------------------------------------------------------------------------|
|---------------------------------------------------------------------------|
|-------------------6-6-6-6-6-6-6-6/-7-7-7-7-7-7-7-7\-4-4-4-4-4-4-4-4-------|
|--2-2-2-2-2-2-2-2--6-6-6-6-6-6-6-6/-7-7-7-7-7-7-7-7\-4-4-4-4-4-4-4-4-------|
|--2-2-2-2-2-2-2-2--4-4-4-4-4-4-4-4/-5-5-5-5-5-5-5-5\-2-2-2-2-2-2-2-2-------|
|--0-0-0-0-0-0-0-0----------------------------------------------------------|
 Shame
|---------------------------------------------------------------------------|
|---------------------------------------------------------------------------|
|--------------------2/4~--------------------2/4--9~---------------2/4~h4/7-|
|--2/4-h5b~-4\2~---2-------2/4-h5b~--4\2~--2----------2/4~-h5b~--2----------|
|----------------2------------------------2---------------------2-----------|
|---------------------------------------------------------------------------|

|---------------------------------------------------------------------------|
|---------------------------------------------------------------------------|
|-------------------2/4~~/7/9-------------------2/4~--------------------2/4~|
|--2/4-h5b~-4\2~--2-------------2/4-h5b~-4\2~-2---------2/4-h5b~-4\2~-2-----|
|----------------2---------------------------2-----------------------2------|
|---------------------------------------------------------------------------|
                                                   Your Going To Wonder Who You
|---------------------------------------------------------------------------|
|---------------------------------------------------------------------------|
|--------------------2/4~--------------------2/4-------------------2/4------|
|--2/4-h5b~-4\2~---2-------2/4-h5b~--4\2~--2---------------------2----------|
|----------------2------------------------2---------------------2-----------|
|---------------------------------------------------------------------------|

   Are
|----------|
|----------|
|----------|
|---2------|
|---2------|
|---0------|

love is good love is bad
love is good all the time etc... no music just billy singing

************************************

| /   slide up
| \   slide down
| h   hammer-on
| p   pull-off
| ~   vibrato
| +   harmonic
| x   Mute note
| b   Bend
| pb  Pre-bend
| br  Bend release
| pbr Pre-bend release
| brb Bend release bend

************************************

Please don't edit this tab e-mail me for any suggestions or questions.
            

comments powered by Disqus
↑ Back to top | Smashing Pumpkins Tabs for Shame. Lyrics for acoustic guitar and electric guitar. Tablatures and chords are parodies/interpretations of the original songs. You may use it for private study, scholarship, research or language learning purposes only