>
 >
Shame

Shame Guitar Tabs

Smashing Pumpkins - Shame chords, tabs, tablatures, lyrics

Guitar lessons | Add/correct | Request | Top 50 tabs Artists:  A B C D E F G H I J K L M N O P Q R S T U V W X Y Z 0-9

Shame Guitar Tabs – Smashing Pumpkins

CD, Sheet music, Poster

Do you like Shame? Share with your friends now
Bass TabsBass Tabs v2Bass Tabs v3Bass Tabs v4TabsTabs v2
================================================================================
                       S M A S H I N G   P U M P K I N S

                                       -

                                   S H A M E
================================================================================


                                     ADORE
                            (c) Virgin Records (1998)


                    Tune Down a 1/2 Step then Drop D (to C#)
                                 C# G# C# F# A# D#

                                  Tempo = 86 BPM
                               Time Signature = 4/4



                          -----------------------------

                                 PADDY MCMULLAN

                                   Version 1.0
                                29th January 2011
                             -----------------------

                             Tablature Symbols Used:


 (/)       -  Legato Slide (Blank space indicates length of slide)
 \         -  Slide Down to/Down From (Blank space indicates length of slide)
 /         -  Slide Up To/Up From (Blank space indicates length of slide)
 ( )       -  Ghost Note/Tied Note/Implied Note
 REST      -  Rest and sustain rest for duration of blank space


                                   -----------
                                   Song Notes:
                                   -----------

       No two repeats are the same for Guitar 1, so to make the tab less
               confusing I've included the song time and lyrics.

   The Ebow is set to the "harmonic" setting which makes the notes sound an
                            octave higher than written.



================================================================================
Part 1: Guitar 1 w/ Clean Tone & Guitar 2 w/ Ebow              [ 00:00 - 00:23 ]
================================================================================


Rest for 2 bars


---------
Guitar 1:
---------


* Let notes ring wherever possible *


||--------------------------|-----------------------|
||--------------------------|-----------0-----------|
||------------0-------------|--------2--------------|
||--2 h 4-------------4-----|-----0-----------------|
||--0--------------0-----0--|--2--------------------|
||--0------0----------------|-----------------------|


|--------------------------|-----------------------|--------------------------|
|--------------------------|-----------0-----------|--------------------------|
|------------0-------------|--------2--------------|------------0-------------|
|--2 h 4-------------4-----|-----0-----------------|--2 h 4-------------4-----|
|--0--------------------0--|--2--------------------|--0------0----------------|
|--0------0-------0--------|-----------------------|--0--------------0-----0--|


|-----------------------|--------------------------|-----------------------||
|-----------0-----------|--------------------------|-----------0-----------||
|--------2--------------|------------0-------------|--------2--------------||
|-----0-----------------|--2 h 4-------------4-----|-----0-----------------||
|--2--------------------|--0-----------------------|--2--------------------||
|-----------------------|--0------0-------0-----0--|-----------------------||



---------
Guitar 2:
---------


Rest for 5 bars


||---------------------|---------------------|---------------------||
||---------------------|---------------------|---------------------||
||---------------------|---------------------|---------------------||
||--4---------------  /| -7----------------\ |--4---------------  /||
||---------------------|---------------------|---------------------||
||---------------------|---------------------|---------------------||



================================================================================
Part 2: Guitars 1 & 2                                     [ Time 00:23 - 00:56 ]
================================================================================


---------
Guitar 1:
---------


||--------------------------|-----------------------|
||--------------------------|-----------0-----------|
||------------0-------------|--------2--------------|
||--2 h 4-------------4-----|-----0-----------------|
||--0-----------------------|--2--------------------|
||--0------0-------0-----0--|-----------------------|


|--------------------------|------------------------|--------------------------|
|--------------------------|-----------0------------|--------------------------|
|------------0-------------|--------2---------------|------------0-------------|
|--2 h 4-------------4-----|-----0------------------|--2 h 4-------------4-----|
|--0--------------------0--|--2---------------------|--0--------------------0--|
|--0------0-------0--------|---------------------0--|--0------0-------0--------|


      You're gonna walk on home                       you're gonna walk alone
|-----------------------|--------------------------|------------------------|
|-----------0-----------|--------------------------|-----------0------------|
|--------2--------------|------------0-------------|--------2------------0--|
|-----0-----------------|--2 h 4-------------4-----|-----0---------------0--|
|--2--------------------|--0-----------------------|--2---------------------|
|-----------------------|--0------0-------0-----0--|------------------------|


                              you're gonna see this through
|-----------------------|-------------------------|----------------------|
|-----------------------|-----------0----------0--|----------------------|
|---------0-------------|--------2-------------0--|---------0------------|
|-----------------4-----|-----0-------------0-----|----------------4-----|
|--0-----------0--------|--2----------------------|--0-------------------|
|--0-----------------0--|-------------------------|--0----------------0--|


   Don't let 'em get to you
|------------------------||
|-----------0------------||
|--------2------------0--||
|-----0------------------||
|--2---------------------||
|------------------------||



---------
Guitar 2:
---------


||---------------------|---------------------| |
||---------------------|---------------------| |
||---------------------|---------------------|*|
||--7--------------- \ | -4--------------- / |*| x 6
||---------------------|---------------------| |
||---------------------|---------------------| |



================================================================================
Part 3: Guitars 1 & 2                                     [ Time 00:56 - 01:19 ]
================================================================================


---------
Guitar 1:
---------

                                Sh-sh-sh-sh-sh shame
||------------------------|------------------------|------------------------|
||-----------2------------|-----------0------------|-----------2------------|
||--------0------------0--|--------2------------2--|--------0------------0--|
||-----4------------4-----|-----0--0---------0-----|-----4------------4-----|
||--0---------------------|--2---------------------|--0---------------------|
||------------------------|------------------------|------------------------|


      Sh-sh-sh-sh-sh shame                             Sh-sh-sh-sh-sh shame
|-----------------------|------------------------|------------------------|
|-----------0-----------|----------0-------------|----------0-------3-----|
|--------2--------------|----------2------2------|----------0-------0--0--|
|-----0------------0----|-----------------0------|----------0-------0--0--|
|--2--------------------|--4----4---------4--0-0-|--2----2-------------0--|
|-----------------------|--4----4---------4--0-0-|--2------------2--------|



|-------------------------|----------------------||
|----------0-------2--0---|----------------------||
|----------2-------2--2-2-|----------0-----------||
|--0-------0-------0--0-0-|--0----0--0-----------||
|--4----4-----4----4--4-0-|--2----2--------------||
|--4----4----------4--4-0-|--2-------------------||



---------
Guitar 2:
---------


||----------------------|----------------------|-----------------------|
||----------------------|----------------------|-----------------------|
||----------------------|----------------------|-----------------------|
||--7---------------- \ | -9---------------- \ | -11---------------- / |
||----------------------|----------------------|-----------------------|
||----------------------|----------------------|-----------------------|


|-----------------------|------------------------|---------------------------|
|-----------------------|------------------------|---------------------------|
|-----------------------|------------------------|---------------------------|
| -12---------------- / | -14------------- / 16--|--16b17r16b17r16b17r16b17--|
|-----------------------|------------------------|---------------------------|
|-----------------------|------------------------|---------------------------|


|-------------------------|----------------------------||
|-------------------------|----------------------------||
|-------------------------|----------------------------||
|--14---- \ 12--------- / |--16b17r16b17r16-------  \--||
|-------------------------|----------------------------||
|-------------------------|----------------------------||



================================================================================
Part 4: Guitars 1, 2, 3 & 4                               [ Time 01:19 - 01:47 ]
================================================================================


---------
Guitar 1:
---------


||--------------------------|-----------------------|
||--------------------------|-----------0-----------|
||------------0-------------|--------2--------------|
||--2 h 4-------------4-----|-----0-----------------|
||--0-----------------------|--2--------------------|
||--0------0-------0-----0--|-----------------------|


                                Love is good and love is kind
|--------------------------|------------------------|--------------------------|
|--------------------------|-----------0------------|--------------------------|
|------------0-------------|--------2------------0--|------------0-------------|
|--2 h 4-------------4-----|-----0------------0--0--|--2 h 4-------------4-----|
|--0--------------------0--|--2---------------------|--0-----------------------|
|--0------0-------0--------|------------------------|--0------0-------0-----0--|


    Love is drunk and love is blind                    Love is good and love is
|--------------------------|-----------------------|-----------------------|
|-----------0---------0----|-(0)-------------------|-----------0-----------|
|--------2------------0/2--|-(2)-----0-------------|--------2--------------|
|-----0---------------0----|-(0)-------------4-----|-----0-----------------|
|--2-----------------------|-----------------------|--2--------------------|
|--------------------------|--0-----------0-----0--|-----------------------|

   mine                         Love is drunk all the [time]
|------------------------|--------------------------||
|------------------------|-----------0--------------||
|----------0-------------|--------2------------0/2--||
|------------------4-----|-----0--------------------||
|--0---------------------|--2-----------------------||
|--0----0-------0-----0--|--------------------------||



---------
Guitar 2: Repeat Part 2 five times
---------



================================================================================
Part 5: Guitars 1 & 2                                     [ Time 01:47 - 02:21 ]
================================================================================


---------
Guitar 1:
---------


                                Sh-sh-sh-sh-sh-shame
||------------------------|------------------------|------------------------|
||-----------2------------|-----------0------------|-----------2------------|
||--------0------------0--|--------2------------2--|--------0------------0--|
||-----4------------4-----|-----0--0---------0-----|-----4------------4-----|
||--0---------------------|--2---------------------|--0---------------------|
||------------------------|------------------------|------------------------|


     Sh-sh-sh-sh-sh-shame                               Sh-sh-sh-sh-sh-shame
|-----------------------|------------------------|-------------------------|
|-----------0-----------|----------0-------------|----------0-----0-----0--|
|--------2--------------|----------2------2------|----------0-----0-----0--|
|-----0------------0----|----------0------0------|----------0-----0-----0--|
|--2--------------------|--4----4---------4--0-0-|--2----2-----2-----2-----|
|-----------------------|--4----4---------4--0-0-|--2----2-----2-----2-----|


                                Sh-sh-sh-sh-sh-shame________________________
|------------------------|------------------------|-------------------------|
|----------0------0------|------------------------|-------------------------|
|----------2------2------|------------------------|----------2-------2------|
|--0-------0------0--0-0-|--0----0-----0----0--0--|--0-------0-------0--0-0-|
|--4----4--4------4--0-0-|--2----2--2--2----2--0--|--4----4--4----4--4--0-0-|
|--4----4--4------4--0-0-|--2----2--2--2----2--0--|--4----4--4----4--4--0-0-|


 _______________________________________________________
|-------------------------|-------------------------|-------------------||
|-------------------------|-------------------------|-------------------||
|-------------------------|-------------------------|-------------------||
|--0-------0--------0-----|--0-------0-------0--0-0-|--0----------------||
|--2----2--2----2-2-2--0--|--4----4--4----4--4--0-0-|--2----------------||
|--2----2--2----2-2-2--0--|--4----4--4----4--4--0-0-|--2----------------||



---------
Guitar 2:
---------


||--------------------|----------------------|-----------------------|
||--------------------|----------------------|-----------------------|
||--------------------|----------------------|-----------------------|
||--7-------------- / |--9---------------- / |--11---------------- / |
||--------------------|----------------------|-----------------------|
||--------------------|----------------------|-----------------------|


|---------------------|----------------------|---------------------------|
|---------------------|----------------------|---------------------------|
|---------------------|----------------------|---------------------------|
|--12-------------- / |--14----------- / 16--|--16b17r16b17r16b17r16b17--|
|---------------------|----------------------|---------------------------|
|---------------------|----------------------|---------------------------|


|-----------------------|---------------------------|-----------------------|
|-----------------------|---------------------------|-----------------------|
|-----------------------|---------------------------|-----------------------|
|--14---- \ 12------- / |--16b17r16b17r16b17r16b17--|--14---- \ 12------- / |
|-----------------------|---------------------------|-----------------------|
|-----------------------|---------------------------|-----------------------|


|---------------------------|------------------------|-------------------||
|---------------------------|------------------------|-------------------||
|---------------------------|------------------------|-------------------||
|--16b17r16b17r16b17r16b17--|--14---- \ 12-----------|--(12)-------------||
|---------------------------|------------------------|-------------------||
|---------------------------|------------------------|-------------------||



================================================================================
Part 6: Guitar 1                                          [ Time 02:21 - 02:54 ]
================================================================================


||---------------------|-------------------||
||---------------------|-------------------||
||---------0-----------|--(0)--------------||
||---------------------|-------------------||
||--0------------------|--(0)--------------||
||--0------------------|--(0)--------------||



Rest for 10 bars



---------------------------
Lyrics during this section:
---------------------------


You're gonna walk on home
You're gonna walk alone
You're gonna walk so far
You're gonna wonder who you are



================================================================================
Part 7: Guitars 1 & 2                                     [ Time 02:54 - 03:42 ]
================================================================================


---------
Guitar 1:
---------

                                 Sh-sh-sh-sh-sh-shame
||------------------------|------------------------|------------------------|
||-----------2------------|-----------0------------|-----------2------------|
||--------0------------0--|--------2------------2--|--------0------------0--|
||-----4------------4-----|-----0--0---------0-----|-----4------------4-----|
||--0---------------------|--2---------------------|--0---------------------|
||------------------------|------------------------|------------------------|


       Sh-sh-sh-sh-sh-shame                             Sh-sh-sh-sh-sh-shame
|------------------------|------------------------|------------------------|
|-----------0------------|-----------2------------|-----------0------------|
|--------2------------0--|--------0------------0--|--------2------------0--|
|-----0------------0-----|-----4------------4-----|-----0------------0-----|
|--2---------------------|--0---------------------|--2---------------------|
|------------------------|------------------------|------------------------|


                               Sh-sh-sh-sh-sh-shame________________
|------------------------|------------------------|-------------------------|
|-----------2------------|-----------0------------|-------------------------|
|--------0------------0--|--------2---------2-----|----------2-------2------|
|-----4------------4-----|-----0------------0-----|--0-------0-------0--0-0-|
|--0---------------------|--2------------------0--|--4----4--4----4--4--0-0-|
|------------------------|------------------------|--4----4--4----4--4--0-0-|


_______________            Shame______________________________
|-----------------------|-------------------------|-------------------------|
|----------0------------|----------0--------------|----------0--------------|
|----------0------0-----|----------2-------2------|----------0-------0------|
|--0-------0------0-----|--0-------0-------0--0-0-|--0-------0-------0--0-0-|
|--2----2--2------2--0--|--4----4--4----4--4--0-0-|--2----2--2----2--2--4-4-|
|--2----2--2------2--0--|--4----4--4----4--4--0-0-|--2----2--2----2--2--4-4-|


   Shame_____________________________________________________________________
|-------------------------|-------------------------|-------------------------|
|----------0--------------|----------0--------------|-------------------------|
|----------2-------2------|----------0-------0------|-------2--2-------2------|
|--0-------0-------0--0-0-|--0-------0-------0--0-0-|--0----0--0-------0--0-0-|
|--4----4--4----4--4--0-0-|--2----2--2----2--2--4-4-|--4----4--4----4--4--0-0-|
|--4----4--4----4--4--0-0-|--2----2--2----2--2--4-4-|--4----4--4----4--4--0-0-|


 ______________
|-------------------|-------------------||
|--0----------------|--(0)--------------||
|--0----------------|--(0)--------------||
|--0----------------|--(0)--------------||
|--2----------------|--(2)--------------||
|--2----------------|--(2)--------------||



---------
Guitar 2: Repeat Part 5
---------



================================================================================
Part 8: Guitars 1 & 2                                     [ Time 02:57 - 03:36 ]
================================================================================


---------
Guitar 1:
---------


||--------------------------|-----------------------|
||--------------------------|-----------0-----------|
||------------0-------------|--------2--------------|
||--2 h 4-------------4-----|-----0-----------------|
||--0--------------------0--|--2--------------------|
||--0------0-------0--------|-----------------------|



|--------------------------|-----------------------|--------------------------|
|--------------------------|-----------0-----------|--------------------------|
|------------0-------------|--------2--------------|------------0-------------|
|--2 h 4-------------4-----|-----0-----------------|--2 h 4-------------4-----|
|--0--------------------0--|--2--------------------|--0--------------------0--|
|--0------0-------0--------|-----------------------|--0------0-------0--------|



|-----------------------|--------------------------|-----------------------|
|-----------0-----------|--------------------------|-----------0-----------|
|--------2--------------|------------0-------------|--------2--------------|
|-----0-----------------|--2 h 4-------------4-----|-----0-----------------|
|--2--------------------|--0--------------------0--|--2--------------------|
|-----------------------|--0------0-------0--------|-----------------------|


|--------------------------|-----------------------|--------------------------|
|--------------------------|-----------0-----------|--------------------------|
|------------0-------------|--------2--------------|------------0-------------|
|--2 h 4-------------4-----|-----0-----------------|--2 h 4-------------4-----|
|--0--------------------0--|--2--------------------|--0--------------------0--|
|--0------0-------0--------|-----------------------|--0------0-------0--------|


|-----------------------|--------------------------|-----------------------|
|-----------0-----------|--------------------------|-----------0-----------|
|--------2--------------|------------0-------------|--------2--------------|
|-----0-----------------|--2 h 4-------------4-----|-----0-----------------|
|--2--------------------|--0--------------------0--|--2--------------------|
|-----------------------|--0------0-------0--------|-----------------------|


|--------------------------|-----------------------||
|--------------------------|-----------0-----------||
|------------0-------------|--------2--------------||
|--2 h 4-------------4-----|-----0-----------------||
|--0--------------------0--|--2--------------------||
|--0------0-------0--------|-----------------------||



---------
Guitar 2:
---------


||----------------------|-------------------------| |
||----------------------|-------------------------| |
||----------------------|-------------------------|*|
||--7---------------- \ | -4b5r4b5r4----------- / |*|
||----------------------|-------------------------| |
||----------------------|-------------------------| |


|-------------------|-------------||
|-------------------|--R--    ----||
|-------------------|--E--    ----||
|--0----------------|--S--    ----||
|-------------------|--T--    ----||
|-------------------|-------------||



================================================================================
Part 9: Guitars 1 & 2                                     [ Time 04:27 - 04:49 ]
================================================================================


---------
Guitar 1:
---------

                               Love is good and love is
||--------------------------|-----------------------|
||--------------------------|-----------0-----------|
||------------0-------------|--------2--------------|
||--2 h 4-------------4-----|-----0-----------------|
||--0--------------------0--|--2--------------------|
||--0------0-------0--------|-----------------------|


  kind                           love is drunk and love is blind
|--------------------------|--------------------------|-----------------------|
|--------------------------|-----------0--------------|-----------------------|
|------------0-------------|--------2------------0/2--|---------0-------------|
|--2 h 4-------------4-----|-----0---------------0----|-----------------4-----|
|--0--------------------0--|--2-----------------------|--0-----------0-----0--|
|--0------0-------0--------|--------------------------|--0--------------------|


     love is good and love is mine                    love is good all the time]
|--------------------------|----------------------|------------------------||
|-----------0--------------|----------------------|-----------0------------||
|--------2------------0/2--|---------0------------|--------2------------0--||
|-----0---------------0----|----------------4-----|-----0------------------||
|--2-----------------------|--0----------------0--|--2---------------------||
|--------------------------|--0-------------------|------------------------||



---------
Guitar 2:
---------


Repeat Part 2 four times.  On the first repeat replace the first note with a 0,
then play an extra repeat of the first bar.



================================================================================
Part 10: Guitars 1 & 3 w/ Delay                           [ Time 04:49 - 05:17 ]
================================================================================


---------
Guitar 1:
---------


||-----------------------|------------------------|--------------------------|
||-----------------------|-----------0------------|--------------------------|
||---------0-------------|--------2------------0--|------------0-------------|
||-----------------4-----|-----0------------------|--2 h 4-------------4-----|
||--0-----------------0--|--2---------------------|--0--------------------0--|
||--0-----------0--------|------------------------|--0------0-------0--------|



|-----------------------|-----------------------|-----------------------|
|-----------0-----------|-----------------------|-----------0-----------|
|--------2--------------|---------0-------------|--------2--------------|
|-----0-----------------|-----------------4-----|-----0-----------------|
|--2--------------------|--0-----------0-----0--|--2--------------------|
|-----------------------|--0--------------------|-----------------------|



|--------------------------|-----------------------|--------------------------|
|--------------------------|-----------0-----------|--------------------------|
|------------0-------------|--------2--------------|------------0-------------|
|--2 h 4-------------4-----|-----0-----------------|--2 h 4-------------4-----|
|--0--------------------0--|--2--------------------|--0--------------------0--|
|--0------0-------0--------|-----------------------|--0------0-------0--------|



|-----------------------||
|-----------0-----------||
|--------2--------------||
|-----0-----------------||
|--2--------------------||
|-----------------------||



---------
Guitar 3:
---------


||-------------------|-------------------------------|---------------------|
||--R--            --|----------------<12>-----------|---------------------|
||--E--            --|--<12>----------<12>-----------|---------------------|
||--S--            --|--<12>----<12>-----------------|--<7>----------------|
||--T--            --|-------------------------------|---------------------|
||-------------------|-------------------------------|---------------------|


|-------------------------|-------------------|-------------------|
|-------------------------|--R--            --|--               --|
|-------------<12>--------|--E--            --|--               --|
|--<7>--------------------|--S--            --|--               --|
|-------------------------|--T--            --|--               --|
|-------------------------|-------------------|-------------------|


|---------------------|--------------------------|---------------------|
|---------------------|--------------------------|---------------------|
|---------------------|-----------<12>-----------|---------------------|
|--<7>----------------|--<7>---------------------|--<7>----------------|
|---------------------|--------------------------|---------------------|
|---------------------|--------------------------|---------------------|


|--------------------------||
|--------------------------||
|-----------<12>-----------||
|--<7>---------------------||
|--------------------------||
|--------------------------||



================================================================================
Part 11: Guitars 1 & 3                                    [ Time 05:17 - 06:02 ]
================================================================================


---------
Guitar 1:
---------

 Hello        goodbye      you know    you made us cry
||--------------------------|-----------------------|
||--------------------------|-----------0-----------|
||------------0-------------|--------2--------------|
||--2 h 4-------------4-----|-----0-----------------|
||--0--------------------0--|--2--------------------|
||--0------0-------0--------|-----------------------|


                                                 hello        goodbye       you
|--------------------------|-----------------------|--------------------------|
|--------------------------|-----------0-----------|--------------------------|
|------------0-------------|--------2--------------|------------0-------------|
|--2 h 4-------------4-----|-----0-----------------|--2 h 4-------------4-----|
|--0--------------------0--|--2--------------------|--0--------------------0--|
|--0------0-------0--------|-----------------------|--0------0-------0--------|


   know    you made us cry                                               hello
|-----------------------|--------------------------|-----------------------|
|-----------0-----------|--------------------------|-----------0-----------|
|--------2--------------|------------0-------------|--------2--------------|
|-----0-----------------|--2 h 4-------------4-----|-----0-----------------|
|--2--------------------|--0--------------------0--|--2--------------------|
|-----------------------|--0------0-------0--------|-----------------------|


          goodbye       you   know     you made us cry
|--------------------------|-----------------------|--------------------------|
|--------------------------|-----------0-----------|--------------------------|
|------------0-------------|--------2--------------|------------0-------------|
|--2 h 4-------------4-----|-----0-----------------|--2 h 4-------------4-----|
|--0--------------------0--|--2--------------------|--0--------------------0--|
|--0------0-------0--------|-----------------------|--0------0-------0--------|


                     hello         goodbye      you know     you made us cry
|-----------------------|-------------------------|-----------------------|
|-----------0-----------|-------------------------|-----------0-----------|
|--------2--------------|------------0------------|--------2--------------|
|-----0-----------------|--2 h 4-------------4----|-----0-----------------|
|--2--------------------|--0----------------------|--2--------------------|
|-----------------------|--0------0-------0-------|-----------------------|


                                              [hello]
|---------------------|--------------------------||
|---------------------|---------3----------------||
|---------0-----------|------------0-------------||
|----------------4----|--2 h 4-------------4-----||
|--0------------------|--0--------------------0--||
|--0------------------|--0--------------0--------||



---------
Guitar 3:
---------


||-------------------|---------------------|-------------------|
||-------------------|---------0-----------|--3----------------|
||--2----------------|--2-----(2)----------|-------------------|
||-------------------|---------------------|-------------------|
||-------------------|---------------------|-------------------|
||-------------------|---------------------|-------------------|


|---------0-----------|--2----------------|--(2)----3-----------|
|--3------------------|--3----------------|--(3)---(3)----------|
|---------------------|--2----------------|--(2)---(2)----------|
|---------------------|-------------------|---------------------|
|---------------------|-------------------|---------------------|
|---------------------|-------------------|---------------------|


|--5----------------|--5------3-----------|-------------------|
|--3----------------|--3------3-----------|--R--            --|
|-------------------|---------------------|--E--            --|
|-------------------|---------------------|--S--            --|
|-------------------|---------------------|--T--            --|
|-------------------|---------------------|-------------------|


|-------------------|--5----------------|--5------3-----------|
|--3----------------|--3----------------|--3------3-----------|
|-------------------|-------------------|---------------------|
|-------------------|-------------------|---------------------|
|-------------------|-------------------|---------------------|
|-------------------|-------------------|---------------------|


|--2----------------|--5----------------|-------------------|
|-------------------|-------------------|--R--            --|
|-------------------|-------------------|--E--            --|
|-------------------|-------------------|--S--            --|
|-------------------|-------------------|--T--            --|
|-------------------|-------------------|-------------------|


|--2------3-------2----||
|---------3----3-------||
|---------0------------||
|----------------------||
|----------------------||
|----------------------||



================================================================================
Part 12: Guitars 1 & 3                                    [ Time 06:02 - 06:41 ]
================================================================================


---------
Guitar 1:
---------


||-----------------------| |
||-----------------------| |
||-----------0-----------|*|
||--2 h 4-----------4----|*| x 13 (until fade)
||--0--------------------| |
||--0--------------------| |



---------------------------
Lyrics during this section:
---------------------------


Hello goodbye
You know you made us cry



---------
Guitar 3:
---------


||-------------------|--5--7----7-----------|-------5------------|
||--R--            --|--5--7----8-----------|--   --3------------|
||--E--            --|----------------------|--   ---------------|
||--S--            --|----------------------|--   ---------------|
||--T--            --|----------------------|--   ---------------|
||-------------------|----------------------|--------------------|


|--5--5----3-----------|-------5-------5------|--5--5----7-----------|
|--3--3----3-----------|--3---------3---------|--3--3----8-----------|
|----------0-----------|----------------------|----------------------|
|----------------------|----------------------|----------------------|
|----------------------|----------------------|----------------------|
|----------------------|----------------------|----------------------|


|-------5-------5------|--5--5----7-----------|-------5------------|
|--3---------3---------|--3--3----8-----------|-------3------------|
|----------------------|----------------------|--------------------|
|----------------------|----------------------|--------------------|
|----------------------|----------------------|--------------------|
|----------------------|----------------------|--------------------|


|--5--5----3-----------|-------5-------5------|--5--5----7-----------|
|--3--3----3-----------|--3---------3---------|--3--3----8-----------|
|----------0-----------|----------------------|----------------------|
|----------------------|----------------------|----------------------|
|----------------------|----------------------|----------------------|
|----------------------|----------------------|----------------------|


|-------5-------5------||
|--3---------3---------||
|----------------------||
|----------------------||
|----------------------||
|----------------------||



The song gradually fades out during the last 8 bars



================================================================================
End
================================================================================


Tab summary:        Part 1
                    Part 2
                    Part 3
                    Part 4
                    Part 5
                    Part 6
                    Part 7
                    Part 8
                    Part 9
                    Part 10
                    Part 11
                    Part 12

                    END





Comments


Popular Smashing Pumpkins tabs & chords
Crestfallen 3 Bass Tabs
The Boy 1 Bass Tabs
Farewell And Goodnight Chords
Mayonaise Chords
Plume Chords
1979 1 Tabs
Frail And Bedazzled Tabs
Mellon Collie Tabs
Dancing In The Moonlight Ukulele
Innosense Ukulele


Song lyrics



↑ Back to top | Tablatures and chords are parodies/interpretations of the original songs. You may use it for private study, scholarship, research or language learning purposes only
© 2014 AZChords.com Contact us | Privacy policy | DMCA | Add/correct tabs | Request tabs | Top 50 tabs