>
 >
Shame 3

Shame 3 Bass Tabs

Smashing Pumpkins - Shame 3 chords, tabs, tablatures, lyrics

Guitar lessons | Add/correct | Request | Top 50 tabs Artists:  A B C D E F G H I J K L M N O P Q R S T U V W X Y Z 0-9

Shame 3 Bass Tabs – Smashing Pumpkins

CD, Sheet music, Poster

Do you like Shame 3? Share with your friends now
Bass TabsBass Tabs v2Bass Tabs v3Bass Tabs v4TabsTabs v2
================================================================================
                       S M A S H I N G   P U M P K I N S

                                       -

                                   S H A M E
================================================================================


                                     ADORE
                            (c) Virgin Records (1998)


                    Tune Down a 1/2 Step then Drop D (to C#)
                                    C# G# C# F#

                                  Tempo = 86 BPM
                               Time Signature = 4/4



                          -----------------------------

                                 PADDY MCMULLAN

                                   Version 1.0
                                29th January 2011
                             -----------------------

                             Tablature Symbols Used:


 (/)       -  Legato Slide (Blank space indicates length of slide)
 \         -  Slide Down to/Down From (Blank space indicates length of slide)
 /         -  Slide Up To/Up From (Blank space indicates length of slide)
 ( )       -  Ghost Note/Tied Note/Implied Note
 REST      -  Rest and sustain rest for duration of blank space


                                   -----------
                                   Song Notes:
                                   -----------

No two repeats are the same so to make the tab less confusing I've included the
                              song time and lyrics.



================================================================================
Part 1:                                                        [ 00:00 - 00:23 ]
================================================================================


||-------------------|-------------------|-------------------|
||-------------------|-------------------|-------------------|
||-------------------|-------------------|-------------------|
||--0----------------|--9----------------|--0----------------|


|-------------------|-------------------|-------------------|
|-------------------|-------------------|-------------------|
|-------------------|-------------------|-------------------|
|--9----------------|--0----------------|--9----------------|


|--------------------|-------------------||
|--------------------|-------------------||
|--------------------|-------------------||
|--12----------------|--9----------------||



================================================================================
Part 2:                                                   [ Time 00:23 - 00:56 ]
================================================================================


||--------------------------|-----------------------|
||--------------------------|-----------------------|
||--------5--5--5--5--5-----|-----------------------|
||--0--0-----0--------0--0--|--9----9--9----9--9----|


|--------------------------|-------------------------|------------------------|
|--------------------------|-------------------------|------------------------|
|--------5--5--5--5--5--5--|-------------------------|--------5--5-------5----|
|--0--0-----0-----0--------|-9--9--9--9--9--9--9--9--|--0--0-----0----0-----0-|


    You're gonna walk on home                            you're gonna walk alone
|------------------------|--------------------------|------------------------|
|------------------------|--------------------------|------------------------|
|------------------------|--------5--5--5--5--5--5--|------------------------|
|--9--9----9--9--9----7--|--0--0-----0-----0--------|--9----9--9--9--9----7--|


                                you're gonna see this through
|--------------------------|-----------------------|--------------------------|
|--------------------------|-----------------------|--------------------------|
|--------5--5--5--5--5--5--|-----------------------|-----------5--5--5--5--5--|
|--0--0-----0-----0--------|--9----9--9----9----7--|--0--0--0--0-----0--------|


    don't let 'em get to you
|--------------------------||
|--------------------------||
|--------------------------||
|--9----9--9--9--9--9--9 \ ||



================================================================================
Part 3:                                                   [ Time 00:56 - 01:19 ]
================================================================================


                               Sh-sh-sh-sh-sh-shame
||------------------------|--------------------------|
||------------------------|--------------------------|
||------------------------|--------------------------|
||--7--7----7----7--7-- / |--9--9--9--9----9--9--9 / |


                                    Sh-sh-sh-sh-sh-shame
|------------------------------|--------------------------|
|------------------------------|--------------------------|
|------------------------------|--------------------------|
|--11--11----11----11--11--11--|--9--9--9--9----9--9--9 \ |


                              Sh-sh-sh-sh-sh-shame
|------------------------|-------------------------|---------------------------|
|------------------------|-------------------------|---------------------------|
|------------------------|-------------------------|---------------------------|
|-4--4--4--4----4----4 \ |--2--2----2----2 / 7--5--|--4--4--4--4--4--4--4--4 \ |


|-------------------------||
|-------------------------||
|-------------------------||
|--2----2--2--2--2--2--2--||



================================================================================
Part 4:                                                   [ Time 01:19 - 01:47 ]
================================================================================


||-------------------------|--------------------------|
||-------------------------|--------------------------|
||--------5--5----5--5-----|--------------------------|
||--0--0-----0----0-----0--|--9--9--9--9--9--9--9--9--|


                              Love is good and love is kind
|-------------------------|------------------------|-------------------------|
|-------------------------|------------------------|-------------------------|
|--------5--5-------5-----|------------------------|--------5--5----5--5-----|
|--0--0-----0----0-----0--|--9----9--9----9--9--9--|--0--0-----0----0-----0--|


    love is drunk and love is blind                     love is good and love is
|------------------------|-------------------------|--------------------------|
|------------------------|-------------------------|--------------------------|
|------------------------|-------------------------|--------------------------|
|--9----9--9----9--9--7--|--0--0--0--0----0--0--0--|--9----9--9----9--9 \ 7 \ |


  mine                              love is drunk all the [time]
|---------------------------------|-------------------------||
|---------------------------------|-------------------------||
|---------------------------------|-------------------------||
|--12--12--12--12----12--12--12 \ |--9----9--9--9----9--9 \ ||



================================================================================
Part 5:                                                   [ Time 01:47 - 02:21 ]
================================================================================


                                 Sh-sh-sh-sh-sh-shame
||--------------------------|--------------------------|
||--------------------------|--------------------------|
||--------------------------|--------------------------|
||--7--7--7--7----7--7--7 / |--9--9--9--9--9--9--9-- / |


                                         Sh-sh-sh-sh-sh-shame
|-----------------------------------|------------------------|
|-----------------------------------|------------------------|
|-----------------------------------|------------------------|
|--11--11--11--11--11--11--11--11 \ |--9----9--9----9--9-- \ |


                                Sh-sh-sh-sh-sh-shame
|--------------------------|--------------------------|
|--------------------------|--------------------------|
|--------------------------|--------------------------|
|--4--4--4--4----4--4--4 \ |--2--2--2--2----2 / 7--5--|


                               Sh-sh-sh-sh-sh-shame__
|---------------------------|--------------------------|
|---------------------------|--------------------------|
|---------------------------|--------------------------|
|--4--4--4--4--4--4--4--4 \ |--2--2--2--2----2 / 7--5--|


 ___________________________________________________
|--------------------------|--------------------------|
|--------------------------|--------------------------|
|--------------------------|--------------------------|
|--4--4--4--4----4--4--4 \ |--2--2--2--2----2 / 7--5--|


 ___________________________________________________
|---------------------------|-------------------------||
|---------------------------|-------------------------||
|---------------------------|-------------------------||
|--4--4--4--4--4--4--4--4 \ |--2--2--2--2----2--2--2--||



================================================================================
Part 6:                                                   [ Time 02:21 - 02:54 ]
================================================================================


||-------------------|-------------------|--------------------------|
||-------------------|-------------------|--------------------------|
||-------------------|-------------------|--------------------------|
||--0----------------|--(0)--------------|--0--0--0--0--0--0--0--0--|


|--------------------------|--------------------------|
|--------------------------|--------------------------|
|--------------------------|--------------------------|
|--9--9--9--9--9--9--9--7--|--0--0--0--0--0--0--0--0--|


     You're gonna walk on home
|--------------------------|--------------------------|
|--------------------------|--------------------------|
|--------------------------|--------------------------|
|--9--9--9--9--9--9--9--7--|--0--0--0--0--0--0--0--0--|


     you're gonna walk alone
|--------------------------|--------------------------|
|--------------------------|--------------------------|
|--------------------------|--------------------------|
|--9--9--9--9--9--9--9--7--|--0--0--0--0--0--0--0--0--|


     you're gonna walk so far
|---------------------------|-----------------------------------|
|---------------------------|-----------------------------------|
|---------------------------|-----------------------------------|
|--9--9--9--9--9--9--9--7 / |--12--12--12--12--12--12--12--12 \ |


  you're gonna wonder who you are
|---------------------------||
|---------------------------||
|---------------------------||
|--9--9--9--9--9--9--9--9 \ ||



================================================================================
Part 7:                                                   [ Time 02:54 - 03:42 ]
================================================================================


                               Sh-sh-sh-sh-sh-shame
||------------------------|--------------------------|
||------------------------|--------------------------|
||------------------------|--------------------------|
||--7--7----7----7----7 / |--9--9--9--9----9--9--9 / |


                                       Sh-sh-sh-sh-sh-shame
|---------------------------------|--------------------------|
|---------------------------------|--------------------------|
|---------------------------------|--------------------------|
|--11--11--11--11----11--11--11 \ |--9--9--9--9--9--9--9--9--|


                              Sh-sh-sh-sh-sh-shame
|-------------------------|----------------------------------|
|-------------------------|----------------------------------|
|--7--7--7--7----7--7--7--|----------------------------------|
|-------------------------|--12--12--12--12--12--12--12--12--|


                                      Sh-sh-sh-sh-sh-shame
|--------------------------------|---------------------------|
|--------------------------------|---------------------------|
|--------------------------------|---------------------------|
|--11--11--11--11----11--11--11--|--9--9--9--9--9--9--9--9 \ |


                                Shame
|--------------------------|---------------------------|
|--------------------------|---------------------------|
|--------------------------|---------------------------|
|--4--4--4--4----4--4--4 \ |--2--2--2--2--2--2 / 7--5--|


                                Shame_________________
|--------------------------|--------------------------|
|--------------------------|--------------------------|
|--------------------------|--------------------------|
|--4--4--4--4----4--4--5 \ |--2--2--2--2----2 / 7--5--|

 _____________________________________________________
|--------------------------|---------------------------|
|--------------------------|---------------------------|
|--------------------------|---------------------------|
|--4--4--4--4----4--4--4 \ |--2--2--2--2--2--2 / 7--5--|


 ____________________________________
|---------------------------|-------------------|-------------------||
|---------------------------|-------------------|-------------------||
|---------------------------|-------------------|-------------------||
|--4--4--4--4--4--4--4--4 \ |--2----------------|--(2)--------------||



================================================================================
Part 8:                                                   [ Time 02:57 - 03:36 ]
================================================================================


||-------------------------|---------------------------|
||-------------------------|---------------------------|
||-------------------------|---------------------------|
||--0--0--0--0----0--0--0--|--9--9--9--9--9--9--9--7 / |


|---------------------------------|-------------------------|
|---------------------------------|-------------------------|
|---------------------------------|-------------------------|
|--12--12--12--12----12--12--12 \ |--9--9--9--9----9--9--7--|


|--------------------------|-------------------------|
|--------------------------|-------------------------|
|--------------------------|-------------------------|
|--0--0--0--0--0--0--0--0--|--9--9--9--9----9----7 / |


|-----------------------------------|-------------------------|
|-----------------------------------|-------------------------|
|-----------------------------------|-------------------------|
|--12--12--12--12--12--12--12--12 \ |--9--9--9--9----9--9--7--|


|--------------------------|---------------------------|
|--------------------------|---------------------------|
|--------------------------|---------------------------|
|--0--0--0--0--0--0--0--0--|--9--9--9--9--9--9--9--7 / |


|-------------------------------|-------------------------|
|-------------------------------|-------------------------|
|-------------------------------|-------------------------|
|--12----12--12----12--12--12 \ |--9--9--9--9----9--9--7--|


|--------------------------|--------------------------|
|--------------------------|--------------------------|
|--------------------------|--------------------------|
|--0--0--0--0--0--0--0--0--|--9--9--9--9----9--9--7 / |


|---------------------------------|-------------------------||
|---------------------------------|-------------------------||
|---------------------------------|-------------------------||
|--12--12--12--12----12--12--12 \ |--9--9--9--9----9--9--7--||



================================================================================
Part 9:                                                   [ Time 04:27 - 04:49 ]
================================================================================


                               Love is good and love is
||-------------------------|--------------------------|
||-------------------------|--------------------------|
||-------------------------|--------------------------|
||--0--0--0--0----0--0--0--|--9--9--9--9----9--9--7 / |


   kind                                 love is drunk and love is
|-----------------------------------|-------------------------|
|-----------------------------------|-------------------------|
|-----------------------------------|-------------------------|
|--12--12--12--12--12--12--12--12 \ |--9--9--9--9----9--9--7--|


   blind                       love is good and love is
|-------------------------|--------------------------|
|-------------------------|--------------------------|
|-------------------------|--------------------------|
|--0--0--0--0--0--0----7--|--9--9--9--9----9--9--7 / |


   mine                                   love is good all the
|-----------------------------------|--------------------------|
|-----------------------------------|--------------------------|
|-----------------------------------|--------------------------|
|--12--12--12--12--12--12--12--12 \ |--9--9--9--9--9--9--9--7--|


   time
|-------------------------||
|-------------------------||
|-------------------------||
|--0--0--0--0--0--0----7--||



================================================================================
Part 10:                                                  [ Time 04:49 - 05:17 ]
================================================================================


||-------------------------|--------------------------|
||-------------------------|--------------------------|
||-------------------------|--------------------------|
||--0--0--0--0--0--0----7--|--9--9--9--9----9--9--7 / |


|----------------------------------|--------------------------|
|----------------------------------|--------------------------|
|----------------------------------|--------------------------|
|--12--12--12--12--12--12--12 \ 7--|--9--9--9--9--9--9--9--7--|


|--------------------------|---------------------------|
|--------------------------|---------------------------|
|--------------------------|---------------------------|
|--0--0--0--0--0--0--0--7--|--9--9--9--9--9--9--9--7 / |


|----------------------------------|--------------------------|
|----------------------------------|--------------------------|
|----------------------------------|--------------------------|
|--12--12--12--12--12--12--12 \ 7--|--9--9--9--9--9--9--9--7--|


|--------------------------|---------------------------||
|--------------------------|---------------------------||
|--------------------------|---------------------------||
|--0--0--0--0--0--0--0--7--|--9--9--9--9--9--9--9--7 / ||



================================================================================
Part 11:                                                  [ Time 05:17 - 06:02 ]
================================================================================


 Hello          goodbye          you know      you made us cry
||----------------------------------|--------------------------|
||----------------------------------|--------------------------|
||----------------------------------|--------------------------|
||--12--12--12--12--12--12--12 \ 7--|--9--9--9--9--9--9--9--7--|


                                                      hello
|--------------------------|---------------------------|
|--------------------------|---------------------------|
|--------------------------|---------------------------|
|--0--0--0--0--0--0--0--7--|--9--9--9--9--9--9--9--7 / |


              goodbye          you  know      you made us cry
|----------------------------------|--------------------------|
|----------------------------------|--------------------------|
|----------------------------------|--------------------------|
|--12--12--12--12--12--12--12 \ 7--|--9--9--9--9--9--9--9--7--|


                                                     hello
|--------------------------|---------------------------|
|--------------------------|---------------------------|
|--------------------------|---------------------------|
|--0--0--0--0--0--0--0--7--|--9--9--9--9--9--9--9--7 / |


              goodbye           you know      you made us cry
|----------------------------------|--------------------------|
|----------------------------------|--------------------------|
|----------------------------------|--------------------------|
|--12--12--12--12--12--12--12 \ 7--|--9--9--9--9--9--9--9--7--|


                                                     hello
|--------------------------|---------------------------|
|--------------------------|---------------------------|
|--------------------------|---------------------------|
|--0--0--0--0--0--0--0--7--|--9--9--9--9--9--9--9--7 / |


                goodbye          you know        you made us cry
|----------------------------------|--------------------------|
|----------------------------------|--------------------------|
|----------------------------------|--------------------------|
|--12--12--12--12--12--12--12 \ 7--|--9--9--9--9--9--9--9--7--|


                                                    hello
|--------------------------|--------------------------||
|--------------------------|--------------------------||
|--------------------------|--------------------------||
|--0--0--0--0--0--0--0--7--|--9--9--9--9--9--9--9--7--||



================================================================================
Part 12:                                                  [ Time 06:02 - 06:41 ]
================================================================================


            goodbye        you know      you made us cry
||---------------------------|--------------------------|
||---------------------------|--------------------------|
||---------------------------|--------------------------|
||--0--0--0--12----0--12-- \ |--9--9--9--9----9--9 \ 7--|


                                                       hello
|----------------------------|---------------------------|
|----------------------------|---------------------------|
|----------------------------|---------------------------|
|--0--0--0--12----12--12-- \ |--9--9--9--9--9--9--9 \ 7--|


            goodbye       you know      you made us cry
|----------------------------|--------------------------|
|----------------------------|--------------------------|
|----------------------------|--------------------------|
|--0--0--0--12----12--12-- \ |--9--9--9--9----9--9 \ 7--|


                                                       hello
|----------------------------|---------------------------|
|----------------------------|---------------------------|
|----------------------------|---------------------------|
|--0--0--0--12----12--12-- \ |--9--9--9--9----9--9 \ 7 / |


           goodbye           you know       you made us cry
|-------------------------------|---------------------------|
|-------------------------------|---------------------------|
|-------------------------------|---------------------------|
|--12--12--12--12----12--12-- \ |--9--9--9--9--9--9--9 \ 7--|


                                                     hello...
|----------------------------|--------------------------||
|----------------------------|--------------------------||
|----------------------------|--------------------------||
|--0--0--0--12----12--12-- \ |--9--9--9--9----9--9 \ 7--||



The song gradually fades out during the last 8 bars.



================================================================================
End
================================================================================


Tab summary:        Part 1
                    Part 2
                    Part 3
                    Part 4
                    Part 5
                    Part 6
                    Part 7
                    Part 8
                    Part 9
                    Part 10
                    Part 11
                    Part 12

                    END





Comments


Popular Smashing Pumpkins tabs & chords
Love 2 Bass Tabs
Sad Peter Pan 1 Bass Tabs
She Chords
Disarm (Intro) Tabs
Egg Tabs
Infinite Sadness 1 Tabs
Lily Tabs
Pox Tabs
Tarantula 1 Tabs
The Ethers Tragic Tabs


Song lyrics



↑ Back to top | Tablatures and chords are parodies/interpretations of the original songs. You may use it for private study, scholarship, research or language learning purposes only
© 2014 AZChords.com Contact us | Privacy policy | DMCA | Add/correct tabs | Request tabs | Top 50 tabs