>
 >
Plume 2

Plume 2 Bass Tabs

Smashing Pumpkins - Plume 2 chords, tabs, tablatures, lyrics

Guitar lessons | Add/correct | Request | Top 50 tabs Artists:  A B C D E F G H I J K L M N O P Q R S T U V W X Y Z 0-9

Plume 2 Bass Tabs – Smashing Pumpkins

CD, Sheet music, Poster

Do you like Plume 2? Share with your friends now
Bass TabsBass Tabs v2ChordsTabsTabs v2Tabs v3Ukulele
================================================================================
                       S M A S H I N G   P U M P K I N S

                                       -

                                   P L U M E
================================================================================


                                PISCES ISCARIOT
                           (c) Virgin Records (1994)


                                 Drop D Tuning
                                    D A D G

                                 Tempo = 74 BPM
                              Time Signature = 4/4



                          -----------------------------

                                 PADDY MCMULLAN

                                   Version 1.0
                               18th November 2010
                             -----------------------

                             Tablature Symbols Used:


 p         -  Pull-Off
 h         -  Hammer-On
 (/)       -  Legato Slide (Blank space indicates length of slide)
 \         -  Slide Down to/Down From (Blank space indicates length of slide)
 /         -  Slide Up To/Up From (Blank space indicates length of slide)
 ( )       -  Ghost Note/Tied Note/Implied Note
 REST      -  Rest and sustain rest for duration of blank space



================================================================================
Part 1:                                                   [ Time 00:00 - 00:41 ]
================================================================================


||---------------R--   --| |
||---------------E--   --|*|
||---------------S--   --|*| x 3
||--5----5--5-5--T--   --| |



||----------------------------| |
||----------------------------|*|
||----------------------------|*| x 4
||--5----5--5-5------10--- \--| |

|__________________________[1]
||--------------------------||
||--------------------------||
||------------------3-3-3-3-||
||--2----2--3----3----------||

|___________________________________________[2]
||------------------------| |---------------| |
||------------------------|2|---------------|4|
||------------------------|/|---------------|/|
||--2----2--3----3--3---3-|4|--3---3-3--4-4-|4|



================================================================================
Part 2:                                                   [ Time 00:41 - 01:04 ]
================================================================================


||----------------------------|-----------------------------------| |
||----------------------------|-----------------------------------|*|
||----------------------------|-----------------------------------|*| x 3
||--5----5--5 \2----2-2--2 /9-|--10---10-10---10--10--10-10--10-0-| |


||----------------------------------||
||----------------------------------||
||----------------------------------||
||--7----(7/9)-10--10--10-- /14\ ---||



================================================================================
Part 3: Guitars 1, 2 & 3 w/ Distortion                    [ Time 01:04 - 01:42 ]
================================================================================


||-------------------------------|-----------------------------------| |
||-------------------------------|-----------------------------------|*|
||-------------------------------|-----------------------------------|*| x 4
||--0-2--0-2--2-0--2--2-0-2-2 /9-|--10---10-10---10--10--10-10--10-0-| |


|-------------------------| |-----------R-    -| |
|-------------------------|3|-----------E-    -|4|
|-------------------------|/|-----------S-    -|/|
|--7----(7/9)-10----------|4|--(10   \--T-    -|4|



================================================================================
Repeat Part 1 with the following variations               [ Time 01:42 - 02:22 ]
================================================================================


Replace the last bar with the following:


| |----------------| |
|2|----------------|4|
|/|----------------|/|
|4|--3---3-3-3-3-0-|4|



================================================================================
Repeat Part 2                                             [ Time 02:22 - 02:46 ]
================================================================================

================================================================================
Repeat Part 3, ending with the following:                 [ Time 02:46 - 03:37 ]
================================================================================


||-------------------------|-------------------|-------------------|
||-------------------------|-------------------|-------------------|
||-------------------------|-------------------|-------------------|
||--7----(7/9)-10----------|--(10)-------------|--(10)-------------|


|-------------------|-------------------||
|-------------------|-------------------||
|-------------------|-------------------||
|--(10)-------------|--(10)-------------||



================================================================================
End
================================================================================


Tab summary:        Part 1 x 4
                    Part 2 x 4
                    Part 3 x 4
                    Part 1 x 1
                    Part 2 x 1
                    Part 3 x 4

                    END





Comments


Popular Smashing Pumpkins tabs & chords
Jackie Blue 1 Bass Tabs
Perfect 2 Bass Tabs
Shame 1 Bass Tabs
Shame 4 Bass Tabs
Tales Of A Scorched Earth 1 Bass Tabs
Daydream 1 Chords
East Chords
Behold The Night Mare 2 Tabs
Starla 1 Tabs
Tarantula 2 Tabs


Song lyrics



↑ Back to top | Tablatures and chords are parodies/interpretations of the original songs. You may use it for private study, scholarship, research or language learning purposes only
© 2014 AZChords.com Contact us | Privacy policy | DMCA | Add/correct tabs | Request tabs | Top 50 tabs