>
 >
Plume

Plume Guitar Tabs

Smashing Pumpkins - Plume chords, tabs, tablatures, lyrics

Guitar lessons | Add/correct | Request | Top 50 tabs Artists:  A B C D E F G H I J K L M N O P Q R S T U V W X Y Z 0-9

Plume Guitar Tabs – Smashing Pumpkins

CD, Sheet music, Poster

Do you like Plume? Share with your friends now
Bass TabsBass Tabs v2ChordsTabsTabs v2Tabs v3Ukulele
OK...Tons of people have tabbed this song incorrectly I think.  this is a
 really easy way to play it:


    ----->   Drop D tuning            
----------------------------------15fb--------15r--15----------|
----12-h-14-p-12-h-14-p-12-------------------------------------|
----------------------------12---------------------------------|


     pick 1st note only
       prebend
gradual bend             
    v
----14hbr--14hbr-14hb-----14hbr--14hbr---12--------------------|
---------------------------------------------15--15--13ring out|

There's another bar left in the first solo but I can't figure
it out.  There's too much feedback or something. It's based
around an E pentatonic. Maybe someone else can figure it out.


Solo 2
w/phaser

grad. bend           grad. bend      grad. bend    tremelo bar
    v                     v              v                v
---15fb--------------------------------14hbr--14hb-19fb-19fb---|
-----------12-h-15-p-12----------------------------------------|
-------------------------14fb--12ring--------------------------|


     Not sure how many times            pick then bend slowly
                    v
----17---17---17---17---17------15fb--15-14-12------15-12------|
----19fb-19fb-19fb-19fb-19fb-------------------15fb------------|




------------15fb--15-------------------------------------------|
----15-p-12----------13----------------------------------------|
------------------------12vib.-----14fbr--12-h-14-p-12-h-14----|
----------------------------12vib.-----------------------------|



                                              Pick 1st note only
                                              
  Not sure                                  prebend
                                       v
-------------12fb----------------------------------------------|
----14-p-12--------11-h-12-p-11-h-12-----------14hbr--14hb-----|
--------------------------------------12-/-14------------------|


                                                         Not
                                                                                                     v
-----------------------------------------------------------10fb|
--16-14-13---------------------------------10fb-9-h-10-p-9-----|
---------- 12-10-12-12-12-10-10-9-10-12-9----------------------|

Well, this is what I came up with.  I know it probably seems hard
to understand but if you e-mail me I will be  happy to clear up
any confusion. Also, if you have any corrections mail me at
for the most of it, it sounds great through a phaser.





Comments


Popular Smashing Pumpkins tabs & chords
The Groover 3 Bass Tabs
Blissed And Gone Chords
Bullet With Butterfly Wings 1 Chords
Crestfallen Chords
Lightning Strikes Chords
Quiet Drum Tabs
Dancing In The Moonlight Tabs
Egg Tabs
Crestfallen Ukulele
Quiet Ukulele


Song lyrics



↑ Back to top | Tablatures and chords are parodies/interpretations of the original songs. You may use it for private study, scholarship, research or language learning purposes only
© 2014 AZChords.com Contact us | Privacy policy | DMCA | Add/correct tabs | Request tabs | Top 50 tabs