» » »

Smashing Pumpkins, Plume Chords (ver.1)

Artists:  A B C D E F G H I J K L M N O P Q R S T U V W X Y Z # 

Plume Chords (ver.1)

Smashing Pumpkins Tabs
 Rating:
4/5 (4 votes)
Plume lessons Tabs too difficult? Try these video lessons and learn fast
1
                ================================================================================
                       S M A S H I N G   P U M P K I N S

                                       -

                                   P L U M E
                          (SOLO ACOUSTIC ARRANGEMENT)
================================================================================


                                PISCES ISCARIOT
                           (c) Virgin Records (1994)


                                 Standard Tuning
                                   E A D G B E

                                 Tempo = 74 BPM
                              Time Signature = 4/4



                          -----------------------------

                                 PADDY MCMULLAN

                                   Version 1.0
                               18th October 2011
                             -----------------------


                             Tablature Symbols Used:


 ^         -  Down-stroke/Strum Down (Low to High Notes)
 v         -  Up-stroke/Strum Up (High to Low Notes)



                             -----------------------
                                  Chords Used:
                             -----------------------


                  G          C          Em       Fsus2      Gadd9
           E||----3----||----0----||----0----||----0----||---------||
           B||----3----||----1----||----0----||----1----||----0----||
           G||----0----||----0----||----0----||----0----||----2----||
           D||----0----||----2----||----2----||----3----||----0----||
           A||----2----||----3----||----2----||----3----||----2----||
           E||----3----||---------||----0----||----1----||----3----||
                                                (Thumb)


                           Emadd9     Cadd9      Asus2
                       ||----0----||----0----||----0----||
                       ||----0----||----3----||----0----||
                       ||----0----||----0----||----2----||
                       ||----4----||----2----||----2----||
                       ||----2----||----3----||----0----||
                       ||----0----||---------||---------||



                             -----------------------
                                   Song Notes:
                             -----------------------


 This is my own acoustic arrangement of the song; as far as I know the band has
 never played it like this but I arranged it this way so that it's both simple
 to play and doesn't involve Drop-D tuning (which is how the original is tuned).



================================================================================
Part 1:                                                   [ Time 00:00 - 00:41 ]
================================================================================


------------------
Strumming Pattern:
------------------


   [G]                [C~]
||-----------------------------| |
||--3---3-3--3-3--3-3--0-1-0-1-| |
||--0---0-0--0-0--0-0--0-0-0-0-|*|
||--0---0-0--0-0--0-0--2-2-2-2-|*| x 3
||--2---2-2--2-2--2-2--3-3-3-3-| |
||--3---3-3--3-3--3-3----------| |
    ^   v ^  v ^  v ^  ^ v ^ v


    [Em]     [Fsus2]  [C~]
||--0--------0-----0----------||
||--0---0-0--1-----1--0-1-0-1-||
||--0---0-0--0-----0--0-0-0-0-||
||--2---2-2--3-----3--2-2-2-2-||
||--2---2-2--3-----3--3-3-3-3-||
||--0-----0--1-----1----------||
    ^   v ^  ^     ^  ^ v ^ v


When the C is to be played as it is above I will display it as [C~], otherwise
it is to be played normally.



_____[C~]

[G]  [C~] X  4


[G]        [C~]  [G]             [C~]
   Oh yeah           another day

[G]        [C~]  [Em]  [Fsus2] [C~]
   Oh yeah       Gotta play

[G]           [C~]  [G]              [C~]
   What it is           it never was

[G]             [C~]    [Em]   [Fsus2]  [Fsus2]
   I don't care     to  give  enough



================================================================================
Part 2:                                                   [ Time 00:41 - 01:04 ]
================================================================================


------------------
Strumming Pattern:
------------------


    [Gadd9]      [Emadd9]              [Cadd9]
||-------------------------------|-----------------------------| |
||--0-----0-0----0---0--0-0--0-0-|--3-----3-3---3--3--3-3--3---| |
||--2-----2-2----0---0--0-0--0-0-|--0-----0-0---0--0--0-0--0-2-|*|
||--0-----0-0--0-4---4--4-4--0-2-|--2-----2-2---2--2--2-2--2-0-|*| x 3
||--2-----2-2--2-2---2--2-2--2-0-|--3-----3-3---3--3--3-3--3-0-| |
||--3-----3-3--0-0---0--0-0--0---|---------------------------0-| |
    ^     v ^  v ^   ^  v ^  ^ v    ^     v ^   ^  ^  v ^  ^ v


    [Asus2]     [C]
||------------------------------||
||--0-----0-0-0-1--1--1-1-3-3-3-||
||--2-----2-2-0-0--0--0-0-0-0-0-||
||--2-----2-2-0-2--2--2-2-2-2-0-||
||--0-----0-0-2-3--3--3-3-3-3---||
||------------------------------||
    ^     ^ v ^ v  v  v ^ v ^ v



[Gadd9]  [Emadd9]  [Cadd9]      [Cadd9]
                      My boredom has outshone the sun

[Gadd9]  [Emadd9]         [Cadd9]  [Cadd9]
                 It's so  dumb     love

[Gadd9]  [Emadd9]  [Cadd9]        [Cadd9]
                       I just want to have some

[Asus2]  [C]
  Little fun



================================================================================
Part 3:                                                   [ Time 01:04 - 01:42 ]
================================================================================


------------------
Strumming Pattern:
------------------


    [Em]                             [Cadd9]
||--0-----0-----0-0--0--0-0-0-0-0-|-----------------------------||
||--0-----0-----0-0--0--0-0-0-0-0-|--3---3-3--3-3--3--3-3-3-3---||
||--0-----0-----0-0--0--0-0-0-0-0-|--0---0-0--0-0--0--0-0-0-0-0-||
||--0h2---0 h2--2-0--2--2-0-2-0-0-|--2---2-2--2-2--2--2-2-2-2-0-||
||--2-----2-----2-2--2--2-2-2-2-0-|--3---3-3--3-3--3--3-3-3-3-0-||
||--0-----0-----0-0--0--0-0-0-0-0-|-----------------------------||
    ^     ^     v ^  ^  v ^ v ^ v    ^   v ^  ^ v  v  v ^ v ^ v



[Em]   [Cadd9]

[Em]   [Cadd9]

[Gadd9]  [Emadd9]  [Cadd9]

[Gadd9]  [Emadd9]  [Cadd9]

[Gadd9]  [Emadd9]  [Cadd9]

[Asus2]  [C]       [C~]



================================================================================
Part 4:                                                   [ Time 01:42 - 02:22 ]
================================================================================


[G]  [C~] X  4


[G]        [C~]  [G]             [C~]
   Oh yeah           another day

[G]        [C~]  [Em]   [Fsus2] [C~]
   Oh yeah       What a waste

[G]           [C~]  [G]              [C~]
   What it is           it never was

[G]             [C~]   [Em]   [Fsus2]  [Fsus2]
   I don't care    or  give a f**k



================================================================================
Repeat Part 2                                             [ Time 02:22 - 02:46 ]
================================================================================

================================================================================
Repeat Part 3                                             [ Time 02:46 - 03:37 ]
================================================================================


----------------------------------------
Lyrics variation during Part 3's repeat:
----------------------------------------


[Gadd9]  [Emadd9]  [Cadd9]  [Cadd9]
                   Bring me down

[Gadd9]  [Emadd9]  [Cadd9]  [Cadd9]
                   Bring me down



Hold the final C chord of the repeat for at least 2 bars before ending.



================================================================================
End
================================================================================


Tab summary:        Part 1 x 4
                    Part 2 x 4
                    Part 3 x 4
                    Part 4 x 1
                    Part 5 x 1

                    END
            
Submit corrections

comments powered by Disqus
↑ Back to top | Smashing Pumpkins Chords for Plume. Lyrics for acoustic guitar and electric guitar. 1 Tablatures and chords are parodies/interpretations of the original songs. You may use it for private study, scholarship, research or language learning purposes only