>
 >
Panopticon

Panopticon Guitar Tabs

Smashing Pumpkins - Panopticon chords, tabs, tablatures, lyrics

Guitar lessons | Add/correct | Request | Top 50 tabs Artists:  A B C D E F G H I J K L M N O P Q R S T U V W X Y Z 0-9

Panopticon Guitar Tabs – Smashing Pumpkins

CD, Sheet music, Poster

Do you like Panopticon? Share with your friends now
TabsTabs v2
I figured this thing out completely by ear so both guitars are jammed together in some 
parts but it's perfect if you just want to play along to it. At first I was very iffy on 
the intro but after watching them play it live I'm sure its 100% accurate.

Tuning is Drop D

Intro: Billy Plays...
------------------------------------------------------|
------------------------------------------------------|
-7-7-7------------6-6-6------------9-9-9--------------|
-x-x-x------(x4)--x-x-x-------(x4)-x-x-x-------(x4)---|
-5-5-5-0-0-0------4-4-4-0-0-0------7-7-7-0-0-0--------|
-------0-0-0------------0-0-0------------0-0-0--------|
then
----------------------------------|
----------------------------------|
-11-11-11----------14-14-14-------|
--x-x-x-------(x2)--x-x-x---------|
--9-9-9-0-0-0------12-12-12-------|
--------0-0-0---------------------|

Jeff plays...
---------------------------------------------------------|
---------------------------------------------------------|
11-11-11----------9-9-9-----------12-12-12---------------|
-x-x-x------(x4)--x-x-x-------(x4)-x-x-x----------(x4)---|
-9-9-9-0-0-0------7-7-7-0-0-0-----10-10-10--0-0-0--------|
-------0-0-0------------0-0-0---------------0-0-0--------|
then
-------------------------------------|
-------------------------------------|
-14-14-14------------18-18-18--------|
--x-x-x--------(x2)---x-x-x----------|
-12-12-12-0-0-0------16-16-16--------|
----------0-0-0----------------------|


The "Rest in the shells I've designed" bit goes...
x2
----------------------------------|
----------------------------------|
-14--11---16---9---12~-11~--------|
-x----x---x----x------------------|
-12---9---14---7------------------|
----------------------------------|
(Let the last 12 11 and 9 ring)
--------------------------------------|
--------------------------------------|
-------9-10-10b-10-9---12~---11~---9~-|
--9-----------------------------------|
----7---------------------------------|
--------------------------------------|

Chorus is D C G D
This is how Billy plays it live... (With LOTS of distortion)
-10---8----------------|
-7----8---8----8-------|
-7----9---x----0-------|
-----10---10---9-------|
----------10---10------|
-----------------------|
It also sounds good if you play it with octaves like this...
-10---8----15----10----|
-x----x----x-----x-----|
-7----5----12----7-----|
-----------------------|
-----------------------|
-----------------------|
If that's too hard then just play it like this...
-----------------------|
-----------------------|
-7----5----12----7-----|
-x----x----x-----x-----|
-5----3----10----5-----|
-----------------------|


Jeff's Solo part after the first Chorus
---------------------------------------------|
---------10-7---7s8--------------------------|
------7--------------7----9--7--6--7--6------|
-7s9------------------------------------7----|
---------------------------------------------|
---------------------------------------------|


--------------------------------15--14--12---------------|
--------10--7----15-------------------------12--15--15---|
------7-------------14--12--14---------------------------|
-7s9-----------------------------------------------------|
---------------------------------------------------------|
---------------------------------------------------------|

The part before the last chorus goes something like this
->19->19->19->19--22->18->18->18->18-22-->19->19->18->18--|
----------------------------------------------------------|
----------------------------------------------------------|
----------------------------------------------------------|
----------------------------------------------------------|
----------------------------------------------------------|

--17-19-17-15--17h19p17-15-----------------|
-------------------------------------------|
-------------------------------------------|
-------------------------------------------|
-------------------------------------------|
-------------------------------------------|

If you don't have a 22nd fret you can play it like this
----------------------------------------------------------|
----------------------------------------------------------|
->16->16->16->16--19->15->15->15->15-19-->16->16->15->15--|
----------------------------------------------------------|
----------------------------------------------------------|
----------------------------------------------------------|


-------------------------------------------|
-------------------------------------------|
----14-16-14-12-14h16p14-12----------------|
-------------------------------------------|
-------------------------------------------|
-------------------------------------------|

right now so please rate :)
Thank you.





Comments


Popular Smashing Pumpkins tabs & chords
Bullet With Butterfly Wings 3 Bass Tabs
Bullet With Butterfly Wings 5 Bass Tabs
Crash Car Star 1 Bass Tabs
Sad Peter Pan 1 Bass Tabs
Medellia Of The Grey Skies Chords
Cherub Rock 1 Tabs
In The Arms Of Sleep Tabs
Landslide 2 Tabs
Rat In A Cage Tabs
Soothe Tabs


Song lyrics



↑ Back to top | Tablatures and chords are parodies/interpretations of the original songs. You may use it for private study, scholarship, research or language learning purposes only
© 2014 AZChords.com Contact us | Privacy policy | DMCA | Add/correct tabs | Request tabs | Top 50 tabs