» » »

Smashing Pumpkins, Panopticon Tabs (ver.3)

Artists:  A B C D E F G H I J K L M N O P Q R S T U V W X Y Z # 

Panopticon Tabs (ver.3)

Smashing Pumpkins Tabs
 Rating:
4/5 (4 votes)
Panopticon lessons Tabs too difficult? Try these video lessons and learn fast
                (Intro)
-------------------------------------------------------------------------------
Panopticon (Intro) - Smashing Pumpkins
-------------------------------------------------------------------------------

Tuning: Drop D (DADGBe)

Guitar 1:
e|---------------------------------------------------------------------------|
B|---------------------------------------------------------------------------|
G|-11-11-11--------11-11-11--------11-11-11--------11-11-11------------------|
D|-x--x--x---------x--x--x---------x--x--x---------x--x--x-------------------|
A|-9--9--9--0-0-0--9--9--9--0-0-0--9--9--9--0-0-0--9--9--9--0-0-0------------|
D|----------0-0-0-----------0-0-0-----------0-0-0-----------0-0-0------------|

e|---------------------------------------------------------------------------|
B|---------------------------------------------------------------------------|
G|-9--9--9---------9--9--9---------9--9--9---------9--9--9-------------------|
D|-x--x--x---------x--x--x---------x--x--x---------x--x--x-------------------|
A|-7--7--7--0-0-0--7--7--7--0-0-0--7--7--7--0-0-0--7--7--7--0-0-0------------|
D|----------0-0-0-----------0-0-0-----------0-0-0-----------0-0-0------------|

e|---------------------------------------------------------------------------|
B|---------------------------------------------------------------------------|
G|-12-12-12--------12-12-12--------12-12-12--------12-12-12------------------|
D|-x--x--x---------x--x--x---------x--x--x---------x--x--x-------------------|
A|-10-10-10-0-0-0--10-10-10-0-0-0--10-10-10-0-0-0--10-10-10-0-0-0------------|
D|----------0-0-0-----------0-0-0-----------0-0-0-----------0-0-0------------|

e|---------------------------------------------------------------------------|
B|---------------------------------------------------------------------------|
G|-14-14-14--------14-14-14--------18-18-18--------18-18-18------------------|
D|-x--x--x---------x--x--x---------x--x--x---------x--x--x-------------------|
A|-12-12-12-0-0-0--12-12-12-0-0-0--16-16-16-0-0-0--16-16-16-0-0-0------------|
D|----------0-0-0-----------0-0-0-----------0-0-0-----------0-0-0------------|


Guitar 2:
e|---------------------------------------------------------------------------|
B|---------------------------------------------------------------------------|
G|-7--7--7---------7--7--7---------7--7--7---------7--7--7-------------------|
D|-x--x--x---------x--x--x---------x--x--x---------x--x--x-------------------|
A|-5--5--5--0-0-0--5--5--5--0-0-0--5--5--5--0-0-0--5--5--5--0-0-0------------|
D|----------0-0-0-----------0-0-0-----------0-0-0-----------0-0-0------------|

e|---------------------------------------------------------------------------|
B|---------------------------------------------------------------------------|
G|-6--6--6---------6--6--6---------6--6--6---------6--6--6-------------------|
D|-x--x--x---------x--x--x---------x--x--x---------x--x--x-------------------|
A|-4--4--4--0-0-0--4--4--4--0-0-0--4--4--4--0-0-0--4--4--4--0-0-0------------|
D|----------0-0-0-----------0-0-0-----------0-0-0-----------0-0-0------------|

e|---------------------------------------------------------------------------|
B|---------------------------------------------------------------------------|
G|-9--9--9---------9--9--9---------9--9--9---------9--9--9-------------------|
D|-x--x--x---------x--x--x---------x--x--x---------x--x--x-------------------|
A|-7--7--7--0-0-0--7--7--7--0-0-0--7--7--7--0-0-0--7--7--7--0-0-0------------|
D|----------0-0-0-----------0-0-0-----------0-0-0-----------0-0-0------------|

e|---------------------------------------------------------------------------|
B|---------------------------------------------------------------------------|
G|-11-11-11--------11-11-11--------14-14-14--------14-14-14------------------|
D|-x--x--x---------x--x--x---------x--x--x---------x--x--x-------------------|
A|-9--9--9--0-0-0--9--9--9--0-0-0--12-12-12-0-0-0--12-12-12-0-0-0------------|
D|----------0-0-0-----------0-0-0-----------0-0-0-----------0-0-0------------|


************************************

| /   slide up
| \   slide down
| h   hammer-on
| p   pull-off
| ~   vibrato
| +   harmonic
| x   Mute note
| b   Bend
| pb  Pre-bend
| br  Bend release
| pbr Pre-bend release
| brb Bend release bend

************************************
            
Submit corrections

comments powered by Disqus
↑ Back to top | Smashing Pumpkins Tabs for Panopticon. Lyrics for acoustic guitar and electric guitar. Tablatures and chords are parodies/interpretations of the original songs. You may use it for private study, scholarship, research or language learning purposes only