>
 >
Panopticon 1

Panopticon 1 Guitar Tabs

Smashing Pumpkins - Panopticon 1 chords, tabs, tablatures, lyrics

Guitar lessons | Add/correct | Request | Top 50 tabs Artists:  A B C D E F G H I J K L M N O P Q R S T U V W X Y Z 0-9

Panopticon 1 Guitar Tabs – Smashing Pumpkins

CD, Sheet music, Poster

Do you like Panopticon 1? Share with your friends now
TabsTabs v2
Smashing Pumpkins
"Panopticon"
Oceania

Drop-D tuning

Intro:

e|----------------------------------------------------------------|
B|----------------------------------------------------------------|
G|-11-11-11--------11-11-11--------11-11-11--------11-11-11-------|
D|----------------------------------------------------------------|
A|-9--9--9---------9--9--9---------9--9--9---------9--9--9--------|
D|----------0-0-0-----------0-0-0-----------0-0-0-----------0-0-0-|

e|----------------------------------------------------------------|
B|----------------------------------------------------------------|
G|-9--9--9---------9--9--9---------9--9--9---------9--9--9--------|
D|----------------------------------------------------------------|
A|-7--7--7---------7--7--7---------7--7--7---------7--7--7--------|
D|----------0-0-0-----------0-0-0-----------0-0-0-----------0-0-0-|

e|----------------------------------------------------------------|
B|----------------------------------------------------------------|
G|-12-12-12--------12-12-12--------12-12-12--------12-12-12-------|
D|----------------------------------------------------------------|
A|-10-10-10--------10-10-10--------10-10-10--------10-10-10-------|
D|----------0-0-0-----------0-0-0-----------0-0-0-----------0-0-0-|

e|----------------------------------------------------------------|
B|----------------------------------------------------------------|
G|-14-14-14--------14-14-14--------18-18-18--------18-18-18-------|
D|----------------------------------------------------------------|
A|-12-12-12--------12-12-12--------16-16-16--------16-16-16-------|
D|----------0-0-0-----------0-0-0-----------0-0-0-----------0-0-0-|

Vs:

e|----------------------------------------------------------------|
B|----------------------------------------------------------------|
G|-11-11-11--------11-11-11--------11-11-11--------11-11-11-------|
D|----------------------------------------------------------------|
A|-9--9--9---------9--9--9---------9--9--9---------9--9--9--------|
D|----------0-0-0-----------0-0-0-----------0-0-0-----------0-0-0-|

e|----------------------------------------------------------------|
B|----------------------------------------------------------------|
G|-9--9--9---------9--9--9---------9--9--9---------9--9--9--------|
D|----------------------------------------------------------------|
A|-7--7--7---------7--7--7---------7--7--7---------7--7--7--------|
D|----------0-0-0-----------0-0-0-----------0-0-0-----------0-0-0-|

e|----------------------------------------------------------------|
B|----------------------------------------------------------------|
G|-12-12-12--------12-12-12--------12-12-12--------12-12-12-------|
D|----------------------------------------------------------------|
A|-10-10-10--------10-10-10--------10-10-10--------10-10-10-------|
D|----------0-0-0-----------0-0-0-----------0-0-0-----------0-0-0-|

e|----------------------------------------------------------------|
B|----------------------------------------------------------------|
G|-14-14-14--------14-14-14--------18-18-18--------18-18-18-------|
D|----------------------------------------------------------------|
A|-12-12-12--------12-12-12--------16-16-16--------16-16-16-------|
D|----------0-0-0-----------0-0-0-----------0-0-0-----------0-0-0-|

e|----------------------------------------------------------------|
B|----------------------------------------------------------------|
G|-11-11-11--------11-11-11--------11-11-11--------11-11-11-------|
D|----------------------------------------------------------------|
A|-9--9--9---------9--9--9---------9--9--9---------9--9--9--------|
D|----------0-0-0-----------0-0-0-----------0-0-0-----------0-0-0-|

e|----------------------------------------------------------------|
B|----------------------------------------------------------------|
G|-9--9--9---------9--9--9---------9--9--9---------9--9--9--------|
D|----------------------------------------------------------------|
A|-7--7--7---------7--7--7---------7--7--7---------7--7--7--------|
D|----------0-0-0-----------0-0-0-----------0-0-0-----------0-0-0-|

e|----------------------------------------------------------------|
B|----------------------------------------------------------------|
G|-12-12-12--------12-12-12--------12-12-12--------12-12-12-------|
D|----------------------------------------------------------------|
A|-10-10-10--------10-10-10--------10-10-10--------10-10-10-------|
D|----------0-0-0-----------0-0-0-----------0-0-0-----------0-0-0-|

e|----------------------------------------------------------------|
B|----------------------------------------------------------------|
G|-15-15-15--------15-15-15--------19-19-19--------19-19-19-------|
D|----------------------------------------------------------------|
A|-13-13-13--------13-13-13--------17-17-17--------17-17-17-------|
D|----------0-0-0-----------0-0-0-----------0-0-0-----------0-0-0-|

Pre-Chs:

e-------------------I---------------------I---------------------|
B-------------------I---------------------I---------------------|
G---------4-6-6br-4-I-7---------6---------I-4---------4-6-6br-4-|
D-0-----------------I---------------------I---------------------|
A-0-----------------I---------------------I---------------------|
D-0-0-0-0-----------I---0-0-0-0---0-0-0-0-I---0-0-0-0-----------|

e---------------------I---------------------I-----------|
B---------------------I-----------5-7-7br-5-I-8---7---5-|
G-7---------6---------I-4-------------------I-----------|
D---------------------I---------------------I-----------|
A---------------------I---------------------I-----------|
D---0-0-0-0---0-0-0-0-I---0-0-0-0-----------I-----------|

Chs:

e-------------------------I---------------------|
B-------------------------I---------------------|
G-------------------------I-12-12-12-12-7-7-7-7-|
D-12-12-12-12-10-10-10-10-I-10-10-10-10-9-9-9-9-|
A-9--9--9--9--7--7--7--7--I-10-10-10-10-5-5-5-5-|
D-------------7--7--7--7-I-10-10-10-10-5-5-5-5-|

e-------------------------I---------------------|
B-------------------------I---------------------|
G-------------------------I-12-12-12-12-7-7-7-7-|
D-12-12-12-12-10-10-10-10-I-10-10-10-10-9-9-9-9-|
A-9--9--9--9--7--7--7--7--I-10-10-10-10-5-5-5-5-|
D-------------7--7--7--7-I-10-10-10-10-5-5-5-5-|

e-------------------------I-------------------------|
B-------------------------I-------------------------|
G-------------------------I-12-12-12-12-12-12-12-12-|
D-12-12-12-12-10-10-10-10-I-10-10-10-10-10-10-10-10-|
A-9--9--9--9--7--7--7--7--I-10-10-10-10-10-10-10-10-|
D-------------7--7--7--7-I-10-10-10-10-10-10-10-10-|

e---------------I--------------------|
B---------------I--------------------|
G---------14-11-I-12--7--9-7-6-7p6---|
D-9---/12-------I------------------7-|
A---------------I--------------------|
D---------------I--------------------|

e---------------I-10----------15-14----------|
B---------------I----10-8/10--------15-12/15-|
G---------14-11-I----------------------------|
D-9---/12-------I----------------------------|
A---------------I----------------------------|
D---------------I----------------------------|

Vs2:

e|----------------------------------------------------------------|
B|----------------------------------------------------------------|
G|-11-11-11--------11-11-11--------11-11-11--------11-11-11-------|
D|----------------------------------------------------------------|
A|-9--9--9---------9--9--9---------9--9--9---------9--9--9--------|
D|----------0-0-0-----------0-0-0-----------0-0-0-----------0-0-0-|

e|----------------------------------------------------------------|
B|----------------------------------------------------------------|
G|-9--9--9---------9--9--9---------9--9--9---------9--9--9--------|
D|----------------------------------------------------------------|
A|-7--7--7---------7--7--7---------7--7--7---------7--7--7--------|
D|----------0-0-0-----------0-0-0-----------0-0-0-----------0-0-0-|

e|----------------------------------------------------------------|
B|----------------------------------------------------------------|
G|-12-12-12--------12-12-12--------12-12-12--------12-12-12-------|
D|----------------------------------------------------------------|
A|-10-10-10--------10-10-10--------10-10-10--------10-10-10-------|
D|----------0-0-0-----------0-0-0-----------0-0-0-----------0-0-0-|

e|----------------------------------------------------------------|
B|----------------------------------------------------------------|
G|-14-14-14--------14-14-14--------18-18-18--------18-18-18-------|
D|----------------------------------------------------------------|
A|-12-12-12--------12-12-12--------16-16-16--------16-16-16-------|
D|----------0-0-0-----------0-0-0-----------0-0-0-----------0-0-0-|

e|----------------------------------------------------------------|
B|----------------------------------------------------------------|
G|-11-11-11--------11-11-11--------11-11-11--------11-11-11-------|
D|----------------------------------------------------------------|
A|-9--9--9---------9--9--9---------9--9--9---------9--9--9--------|
D|----------0-0-0-----------0-0-0-----------0-0-0-----------0-0-0-|

e|----------------------------------------------------------------|
B|----------------------------------------------------------------|
G|-9--9--9---------9--9--9---------9--9--9---------9--9--9--------|
D|----------------------------------------------------------------|
A|-7--7--7---------7--7--7---------7--7--7---------7--7--7--------|
D|----------0-0-0-----------0-0-0-----------0-0-0-----------0-0-0-|

e|----------------------------------------------------------------|
B|----------------------------------------------------------------|
G|-12-12-12--------12-12-12--------12-12-12--------12-12-12-------|
D|----------------------------------------------------------------|
A|-10-10-10--------10-10-10--------10-10-10--------10-10-10-------|
D|----------0-0-0-----------0-0-0-----------0-0-0-----------0-0-0-|

e|----------------------------------------------------------------|
B|----------------------------------------------------------------|
G|-15-15-15--------15-15-15--------19-19-19--------19-19-19-------|
D|----------------------------------------------------------------|
A|-13-13-13--------13-13-13--------17-17-17--------17-17-17-------|
D|----------0-0-0-----------0-0-0-----------0-0-0-----------0-0-0-|

Pre-Chs2:

e-----------------I-----------------I------------------|
B-----------------I-----------------I------------------|
G-/16-/16-/16-/19-I-/15-/15-/15-/19-I-/16-/16/-/15-/15-|
D-----------------I-----------------I------------------|
A-----------------I-----------------I------------------|
D-----------------I-----------------I------------------|

e-------------------------|
B-------------------------|
G-14-16-14-12-14h16p14-12-|
D-------------------------|
A-------------------------|
D-------------------------|

Chs2:

e-------------------------I---------------------|
B-------------------------I---------------------|
G-------------------------I-12-12-12-12-7-7-7-7-|
D-12-12-12-12-10-10-10-10-I-10-10-10-10-9-9-9-9-|
A-9--9--9--9--7--7--7--7--I-10-10-10-10-5-5-5-5-|
D-------------7--7--7--7-I-10-10-10-10-5-5-5-5-|

e-------------------------I---------------------|
B-------------------------I---------------------|
G-------------------------I-12-12-12-12-7-7-7-7-|
D-12-12-12-12-10-10-10-10-I-10-10-10-10-9-9-9-9-|
A-9--9--9--9--7--7--7--7--I-10-10-10-10-5-5-5-5-|
D-------------7--7--7--7-I-10-10-10-10-5-5-5-5-|

e-------------------------I-------------------------|
B-------------------------I-------------------------|
G-------------------------I-12-12-12-12-12-12-12-12-|
D-12-12-12-12-10-10-10-10-I-10-10-10-10-10-10-10-10-|
A-9--9--9--9--7--7--7--7--I-10-10-10-10-10-10-10-10-|
D-------------7--7--7--7-I-10-10-10-10-10-10-10-10-|

e-------------------------I---------------------|
B-------------------------I---------------------|
G-------------------------I-12-12-12-12-7-7-7-7-|
D-12-12-12-12-10-10-10-10-I-10-10-10-10-9-9-9-9-|
A-9--9--9--9--7--7--7--7--I-10-10-10-10-5-5-5-5-|
D-------------7--7--7--7-I-10-10-10-10-5-5-5-5-|

e-------------------------I---------------------|
B-------------------------I---------------------|
G-------------------------I-12-12-12-12-7-7-7-7-|
D-12-12-12-12-10-10-10-10-I-10-10-10-10-9-9-9-9-|
A-9--9--9--9--7--7--7--7--I-10-10-10-10-5-5-5-5-|
D-------------7--7--7--7-I-10-10-10-10-5-5-5-5-|

e-------------------------I-------------------------|
B-------------------------I-------------------------|
G-------------------------I-12-12-12-12-12-12-12-12-|
D-12-12-12-12-10-10-10-10-I-10-10-10-10-10-10-10-10-|
A-9--9--9--9--7--7--7--7--I-10-10-10-10-10-10-10-10-|
D-------------7--7--7--7-I-10-10-10-10-10-10-10-10-|

e---------------|
B---------------|
G-9-9-9-9-9-9-9-|
D-7-7-7-7-7-7-7-|
A-5-5-5-5-5-5-5-|
D-5-5-5-5-5-5-5-|

Outro:

e-----------------I-----------------I---------------------|
B-----------------I-----------------I---------------------|
G-14-14-14-/16-14-I-12-12-12-/14-12-I-----12-11-12--12/14-|
D-----------------I-----------------I-12------------------|
A-----------------I-----------------I---------------------|
D-----------------I-----------------I---------------------|

e-----------------I-----------------I---------------------|
B-----------------I-----------------I---------------------|
G-14-14-14-/16-14-I-12-12-12-/14-12-I-----12-11-12--12-14-|
D-----------------I-----------------I-12------------------|
A-----------------I-----------------I---------------------|
D-----------------I-----------------I---------------------|

e-------------------------|
B----------15-17-19p17/15-|
G-12-14-16----------------|
D-------------------------|
A-------------------------|
D-------------------------|

Lyrics:

Rise! Love is here
 Oh don't make me wonder
 Life's never clear where choice is a gift
 To use and abuse
 To build on proof
 Oh don't make me suffer
 Birds find the wind and wing
 Rest in the shells I've desinged
 Run through the fields I've denied
 And stroll upon the years I'm alive

There's a sun that shines in
 There's a world that stares out at me
 And all I refuse to please

Breathe! Love is air
 Oh don't make me suffer
 To dash debonair where chaste is the wish
 To bust with pain
 A heart goes blank
 Oh don't make me wonder
 To ask on behalf of you
 Of you, where are you?
 Where are you in you?

There's a sun that shines in
 There's a world that stares out at me
 And all I refuse to please
 There's a sun that shines in
 There's a world that stares out at me
 And all I refuse
 And all I'd ever use in me
 There's a sun that shines in me
 There's a sun that shines
 There's a sun that shines in me





Comments


Popular Smashing Pumpkins tabs & chords
Bodies Bass Tabs
Pshychedelic Bass Tabs
Silverf**K Bass Tabs
19 Chords
Hello Kitty Kat Chords
Ava Adore Live Tabs
Perfect Live Tabs
Tarantula Tabs
We Only Come Out Tabs
Blissed And Gone Ukulele


Song lyrics



↑ Back to top | Tablatures and chords are parodies/interpretations of the original songs. You may use it for private study, scholarship, research or language learning purposes only
© 2014 AZChords.com Contact us | Privacy policy | DMCA | Add/correct tabs | Request tabs | Top 50 tabs