» » »

Bullet With Butterfly Wings Bass tabs (ver.3)

Artists:  A B C D E F G H I J K L M N O P Q R S T U V W X Y Z # 

Bullet With Butterfly Wings Bass tabs (ver.3)

Smashing Pumpkins
Rating:
0/5 (0 votes)

Tabs too difficult? Try these video lessons and learn fast.
                "Bullet With Butterfly Wings"  Smashing Pumpkins

Verses

G ---------------------------------------------|
D ---------------------------------------------|
A ----2----2----0----2----2--------------------|
E --------------------------------3----3----0--|

G ---------------------------------------------|
D ---------------------------------------------|
A -------------------------0----0----0----0----|
E ----0----0----0----0-------------------------|

(play the two measures above 7 times)

Pre-chorus

G ---------------------------------------------|
D ---------------------------------------------|
A ----2----2----2------------------------------|
E ---------------------0----0----0----0----3---|

G ---------------------------------------------|
D ---------------------------------------------|
A --------------------------0----0----0----0---|
E ----3----3----3----3-------------------------|

(play the two measures above 4 times)

G ---------------------------------------------|
D ---------------------------------------------|
A ----2----2----2--------------------------0---|
E ---------------------3----3----3----3--------|

G ---------------------------------------------|
D ---------------------------------------------|
A ----0----0----0----0----0----0----0----0-----|
E ---------------------------------------------|

First and Second Chorus (they are the same)

G ---------------------------------------------|
D ---------------------------------------------|
A ----2----2----2----0--------------------4----|
E --------------------------3----3----3--------|

G ---------------------------------------------|
D ---------------------------------------------|
A ----5----5----5----5-------------------------|
E --------------------------5----5----5----5---|

G ---------------------------------------------|
D ---------------------------------------------|
A ----7-\---------------------------------0----|
E --------------0----3----3----3----3----------|

(play the three measures above 2 times)

G ---------------------------------------------|
D ---------------------------------------------|
A ----2----2----2----0--------------------4----|
E --------------------------3----3----3--------|

G ---------------------------------------------|
D ---------------------------------------------|
A ----5----5----5----5-------------------------|
E --------------------------5----5----5----5---|

(play the two measures above 2 times)

G ---------------------------------------------|
D ---------------------------------------------|
A ----7-\--------------------------------------|
E --------------0----3----3----3----3----3-----|

G ---------------------------------------------|
D ---------------------------------------------|
A ------------------------------------0--------|
E --------2--------0--------2------------------|

G ---------------------------------------------|
D ---------------------------------------------|
A --------0----0----0----0----0----0----0------|
E ---------------------------------------------|

              "Now         I'm naked..."
G ---------------------------------------------|
D ---------------------------------------------|
A --------0----0----0----0----0----0----0------|
E ---------------------------------------------|

(Back to Verse)
(Back to Pre-Chorus)
(Back to Chorus)

Interlude

G ---------------------------------------------|
D ---------------------------------------------|
A --------------------2----2----2--------------|
E ----4----2----4--------------------4----4----|

G ---------------------------------------------|
D ---------------------------------------------|
A ---------------------------------------------|
E ----2----0----2----5----5----5----5----5-----|

(play the two measures above 4 times)

Bridge

G ---------------------------------------------|
D ---------------------------------------------|
A ---------------------------------------------|
E ----0----0----0----3----3----3----3----3-----|

G ---------------------------------------------|
D ---------------------------------------------|
A ---------------------------------------------|
E ----2----2----2----5----5----5----5----5-----|

(play the two measures above two times)

G ---------------------------------------------|
D ---------------------------------------------|
A ---------------------------------------------|
E ----0----0----0----3----3----3----3----3-----|
+
G ---------------------------------------------|
D ---------------------------------------------|
A ---------------------------------------------|
E ----2----2----2----2----2----2----2----2-----|

(play the one measure above two times)

11 measures of no bass for the third chorus, and then at the end of the third chorus the 
comes in


G ---------------------------------------------|
D ---------------------------------------------|
A ----7-\---------------------------------0----|
E --------------0----3----3----3----3----------|

Out Chorus

G ---------------------------------------------|
D ---------------------------------------------|
A ----2----2----2----0--------------------4----|
E --------------------------3----3----3--------|

G ---------------------------------------------|
D ---------------------------------------------|
A ----5----5----5----5----0----0----0----1-----|
E ---------------------------------------------|

(play the two measures above 5 times)

G ---------------------------------------------|
D ---------------------------------------------|
A ----2----2----2----0--------------------4----|
E --------------------------3----3----3--------|

G ---------------------------------------------|
D ---------------------------------------------|
A ----5----5----5----5----0----0----0----1-----|
E ---------------------------------------------|

(play the two measures above 8 times)

G -----------------------------|
D -----------------------------|
A ----7-\------0---------------|
E -------------------0----3----|

G -----------------------------|
D -----------------------------|
A ----2------------------------|
E -----------------------------|

Very Clean Cut
This is how the guitarist in my band taught me to play this.
Have fun!!!
            
Tabs too difficult? Try these video lessons and learn fast.




comments powered by Disqus
↑ Back to top | Tablatures and chords are parodies/interpretations of the original songs. You may use it for private study, scholarship, research or language learning purposes only