>
 >
Bullet With Butterfly Wings 1

Bullet With Butterfly Wings 1 Guitar Tabs

Smashing Pumpkins - Bullet With Butterfly Wings 1 chords, tabs, tablatures, lyrics

Guitar lessons | Add/correct | Request | Top 50 tabs Artists:  A B C D E F G H I J K L M N O P Q R S T U V W X Y Z 0-9

Bullet With Butterfly Wings 1 Guitar Tabs – Smashing Pumpkins

CD, Sheet music, Poster

Do you like Bullet With Butterfly Wings 1? Share with your friends now
Bass TabsBass Tabs v2Bass Tabs v3Bass Tabs v4Bass Tabs v5Bass Tabs v6Bass Tabs v7ChordsChords v2Chords v3Drum TabsTabsTabs v2Tabs v3Tabs v4Tabs v5Tabs v6UkuleleUkulele v2
Tuning: 1/2 Step Down (Eb, Ab, Db, Gb, Bb, eb)


     After reviewing the tab and chord files for BWBW, I
realized that they sucked. They were incomplete, and the
lyrics included were horrible. So, after discussing the
greatness of the song with a few of my friends, I decided to
tab it out in its entirety. The Intro is from the tab on
OLGA already, and I used the chord file on there to help tab
out chorus. Some of the leads were also on the internet.

     This is the first song I have ever tabbed out, so if I
missed something (or if you're stupid), send your questions,
want to know if the little riff in the second verse is correct.

     I would also like to say: WILL SOMEONE PLEASE TAB
OUT THE SOLO TO "ZERO" AND THE 4 MIN. SOLO TO "DROWN"?


~ = Hold Note

INTRO:

|---------------------------------------|
|---------------------------------------|
|-4-4-4-4-------------------2-2-2-2-----|
|-4-4-4-4---5---2---2-2-2---2-2-2-2-----|
|-2-2-0-2---5---2---2-2-2---0-0-0-0-----|
|-----------3---0---0-0-0---------------|

after 8 times, play this ("Even though I know...")

|--------------------------------------------------|
|--------------------------------------------------|
|--------------------------2--2--2--2--4--4--4--4--|
|--2--2--2--5--5--5--5--5--2--2--2--2--4--4--4--4--|
|--2--2--2--5--5--5--5--5--0--0--0--0--2--2--2--2--|
|--0--0--0--3--3--3--3--3--------------------------|


CHORUS:

|-----------------------0----0---0-------------------------|
|-----------------------3----3---3-------------------------|
|--4---4---4------------2----2---2---2---2---2-------------|
|--4---4---4---5----5---0----0---0---2---2---2---2-------5-|
|--2---2---0---5----5----------------0---0---0---2-------5-|
|--------------3----3----------------------------0-------3-|

then after a few times, this Quickly:

|--------------------|
|--------------------|
|--------------------|
|-4--4--4---7--------|
|-4--4--4---7--------|
|-2--2--2---5--------|


SECOND VERSE:

Play it exactly the same, with this lead guitar riff after
"and what you want":

|-------------------------------------------|
|-------------------------------------------|
|--14~~--12--------------------------12-----|
|------------14--16~~~--16-16-16-16-----14--|
|-------------------------------------------|
|-------------------------------------------|

Then it repeats this B chord until the chorus.

|------|
|------|
|--14--|
|--14--|
|--12--|
|------|

(I like to play just the B note on the 12th fret of the 5th
String; do as you please)


SECOND CHORUS:

play the same stuff, then after play:

|--------------------|
|--------------------|
|--------------------|
|-6--6--6---9---9~~--|
|-6--6--6---9--------|
|-4--4--4---7--------|

|--------------------|
|--------------------|
|--------------------|
|-4--4--4---7---7~~--|
|-4--4--4---7--------|
|-2--2--2---5--------|

|--------------------|
|--------------------|
|--------------------|
|-6--6--6---9---9~~--|
|-6--6--6---9--------|
|-4--4--4---7--------|

|--------------------|
|--------------------|
|--------------------|
|-4--4--4---7---12~~-|
|-4--4--4---7--------|
|-2--2--2---5--------|

repeat these, with last slide to fret 12 ending in a bend.

then,:

|-------------------------------|
|-------------------------------|
|------------------2--2--2---4--|
|--2--2---5---5----2--2--2---4--|
|--2--2---5---5----0--0--0---2--|
|--0--0---3---3-----------------|

last time before quiet part just keep repeating A chord.


QUIET PART:

First Guitar Plays This 4 Times:

|-------------------------------------------------------|
|----------------------2--------------------------------|
|----2-------------------3------2-----------------------|
|------2------5-----0-------------2------2--------5-----|
|-4-------------5------------0-----------------------5--|
|----------3--------------------------0-----3--3--------|

On Third Time, a Second Guitar Comes In With This:

|----------------------------------|
|---10----8----7-----8p7-----------|
|-------------------------9--7h9---|
|----------------------------------|
|----------------------------------|
|----------------------------------|

Do This Twice

Then, with "CAGE!!!!!", turn on distortion, and play:

|--------------------|
|--------------------|
|--------------------|
|-4--4--4---7--------|
|-4--4--4---7--------|
|-2--2--2---5--------|


Repeat chorus with distortion, only playing up to the first
four chords each time:

|-----------------------0----0---0-------------|
|-----------------------3----3---3-------------|
|--4---4---4------------2----2---2---2---2---2-|
|--4---4---4---5----5---0----0---0---2---2---2-|
|--2---2---0---5----5----------------0---0---0-|
|--------------3----3--------------------------|


OUTRO:

|------------------0--0----------|
|------------------3--3----------|
|--4--4------------2--2---2-2-2--|
|--4--4----5-5-5----------2-2-2--|
|--2--2----5-5-5----------0-0-0--|
|----------3-3-3-----------------|

One guitar is playing this with heavy distortion, the other
is playing this lead with some kind of wah effect:

(Repeat This One a Few Times)
|------------------------------------------------------------|
|------------------------------------------------------------|
|---2h4---4--4--2h4--4-4--2h4--4-4b--2h4---2h4--2h4--4--4b---|
|------------------------------------------------------------|
|------------------------------------------------------------|
|------------------------------------------------------------|

(Then To This)
|------------------------------------------------------------|
|----10h12---12b---10--10h12---12--10h12--12--10h12---12b----|
|-2----------------------------------------------------------|
|------------------------------------------------------------|
|------------------------------------------------------------|
|------------------------------------------------------------|

(Then This...)
|------------------------------------------------------------|
|--10h12--10h12--10h12--12b--12b--7h8---7h8--7h8--7s5s3------|
|------------------------------------------------------------|
|------------------------------------------------------------|
|------------------------------------------------------------|
|------------------------------------------------------------|


ENDING:

This is the lead to the final verse:

|-------------------------------|
|---5b---5-----3---2--3p2p0-----|
|----------------------------2--|
|-------------------------------|
|-------------------------------|
|-------------------------------|

|-------------------------|
|-------------------------|
|-14b--14p12-------11-----|
|-------------14v---------|
|-------------------------|
|-------------------------|

These are the chords to the final verse:

|------------------0--0----------|
|------------------3--3----------|
|--4--4------------2--2---2-2-2--|
|--4--4----5-5-5----------2-2-2--|
|--2--2----5-5-5----------0-0-0--|
|----------3-3-3-----------------|

|---------------------|
|---------------------|
|---------------------|
|-4--4--4---5~-----7--|
|-4--4--4---5~-----7--|
|-2--2--2---3~-----5--|


LYRICS:

the world is a vampire, sent to drain
secret destroyers, hold you up to the flames
and what do i get, for my pain
betrayed desires, and a piece of the game

even though i know-i suppose i'll show
all my cool and cold-like old job

despite all my rage i am still just a rat in a cage
then someone will say what is lost can never be saved
despite all my rage i am still just a rat in a cage

now i'm naked, nothing but an animal
but can you fake it, for just one more show
and what do you want, i want to change
and what have you got
when you feel the same

even though i know-i suppose i'll show
all my cool and cold-like old job

despite all my rage i am still just a rat in a cage
then someone will say what is lost can never be saved
despite all my rage i am still just a rat in a cage

tell me i'm the only one
tell me there's no other one
jesus was an only son
tell me i'm the chosen one
jesus was an only son for you

despite all my rage i am still just a rat in a cage
and i still believe that i cannot be saved





Comments


Popular Smashing Pumpkins tabs & chords
Blank Page 4 Bass Tabs
Slunk Bass Tabs
To Shiela Chords
Beautiful 2 Tabs
Cherry Tabs
Geek U.S.A 1 Tabs
Never Let Me Down Intro 1 Tabs
Pennies Tabs
Ugly 1 Tabs
Unknown 1 Tabs


Song lyrics



↑ Back to top | Tablatures and chords are parodies/interpretations of the original songs. You may use it for private study, scholarship, research or language learning purposes only
© 2014 AZChords.com Contact us | Privacy policy | DMCA | Add/correct tabs | Request tabs | Top 50 tabs