» » »

Bullet With Butterfly Wings Tabs (ver.3)

Artists:  A B C D E F G H I J K L M N O P Q R S T U V W X Y Z # 

Bullet With Butterfly Wings Tabs (ver.3)

Smashing Pumpkins
Rating:
0/5 (0 votes)

Hard to play? Try these video lessons and learn fast.
                BULLET WITH BUTTERFLY WINGS - by Smashing Pumpkins as

All guitars tuned Eb, Ab, Db, Gb, Bb, Eb

"The world is a vampire..."

*1

G1 and G2 mid/light distortion

|---------------------------------------------------------
|----------------------0-0-0-0----------------------------
|-4-4-4-4-----4--4-4-4-4-4-4-4----------------------------
|-4-4-4-4--4--4--4-4-4-4-4-4-4----------------------------
|-2-2-0-2--2--2--2-2-2-0-0-0-0----------------------------
|----------3--0--0-0-0------------------------------------
                              ^repeat

*2
                          <   <
|---------------------------------------------------------
|-------------------------0-0-0-0-------------------------
|-4-4-4-------------------4-4-4-4-------------------------
|-4-4-4-4-4-4-4-4-4-4-4-4-4-4-4-4-------------------------
|-2-2-2-2-2-2-2-2-2-2-2-2-0-0-0-0-------------------------
|-------0-0-0-0-0-3-3-3-3---------------------------------
                                 ^repeat
                          ^ that little "<" 
                          is for emphasis.

*3

Heavy Distortion!!!

|---------------------------------------------------------
|-------------3-(3-3)---------------------------3---------
|-4--4-4------2--2-2-2--2-9\----------4--4-4----2---------
|-4--4-4-5----0--0-0-2--2-9\--5----4--4--4-5----0---------
|-2--2-0-5----0--0-0-0--0-7\--X----2--2--0-5----0---------
|--------3-0--------------0---3------------3-0---...------
                                   ^repeat
                               ^one of the guitars
                               somehow tremolos a
                               G in here...don't ask
                               me :>
Chorus ends with:

|-------------------------------------------------------
|-------------------------------------------------------
|-----------2-------------------------------------------
|-4-----4---2-------------------------------------------
|-4-----4---0-------------------------------------------
|-2--0--2-----------------------------------------------
                ^repeated several times after second chorus
back to *1...

End riff
(similar to *3)

|---------------------------------------------------------
|---------3-----------------------------------------------
|-4-------2-X-2-------------------------------------------
|-4-X-5---0-X-2-------------------------------------------
|-2-X-5---0-X-0-------------------------------------------
|-----3---------------------------------------------------
              add rhythm there as appropriate...
            
Hard to play? Try these video lessons and learn fast. | Correct




comments powered by Disqus
↑ Back to top | Tablatures and chords are parodies/interpretations of the original songs. You may use it for private study, scholarship, research or language learning purposes only