» » »

Smashing Pumpkins, Ava Adore Tabs (ver.4)

Artists:  A B C D E F G H I J K L M N O P Q R S T U V W X Y Z # 

Ava Adore Tabs (ver.4)

Smashing Pumpkins Tabs
Rating:
2.7/5 (6 votes)
Ava Adore lessons Tabs too difficult? Try these video lessons and learn fast
                (Live)
-------------------------------------------------------------------------------
-------------------------------------------------------------------------------

Tuning: 1/2 Step Down


This tab is a mixture of Billy and James from the gig they played at the Sydney 
Shipping Terminal at their secret gig in 98'.
Guitar wise it's very repetitive so I've most of it, because after the solo it 
just repeats the verse parts. 
If you can't find the audio from the secret gig then the concert they played in 
1998-05-14 - Hamburg is almost exact.
Actually the whole concert at Hamburg is almost exact to the Sydney gig. The first 
24 seconds is the drums

INTRO:-
Billy:0:24 - 0:45
|-----------------------------------------------------------------------------------------|
|-----------------------------------------------------------------------------------------|
|-----------------------------------------------------------------------------------------|
|4-4-x-x-x-x-4-4--4/7---4-4-x-x-x-x-4-4--4/7---4-4-x-x-x-x-4-4--4/7---4-4-x-x-x-x-4-4--4/7|X2
|4-4-x-x-x-x-4-4--4/7---4-4-x-x-x-x-4-4--4/7---4-4-x-x-x-x-4-4--4/7---4-4-x-x-x-x-4-4--4/7|
|2-2-x-x-x-x-2-2--2/5---2-2-x-x-x-x-2-2--2/5---2-2-x-x-x-x-2-2--2/5---2-2-x-x-x-x-2-2--2/5|

James:0:35
|--------------------------------------------------------------------|
|--------------------------------------------------------------------|
|-----5b------15~-14/21b---------------------------------------------|
|--------------------------------------------------------------------|
|--------------------------------------------------------------------|
|--------------------------------------------------------------------|

0:46 And It's You That I Adore, You Will Always Be My 
|--------------------------------------------------------------------|
|--------------------------------------------------------------------|
|------%----------%-----------%---------%----------%-----------%-----|
|--------------------------------------------------------------------|
|--------------------------------------------------------------------|
|--------------------------------------------------------------------|

Billy: 1:01    We   Must  Never  Be Apart         We Must Never Be Apart
|-------------------------2---------------x-x------------2-----------|
|-------------------------3---------------x-x------------3-----------|
|-------------0-----------4---------------x-x----0-------4-----------|
|-x-x-x-x-----2-----------4--------4------x-x----2-------4-----------|
|-x-x-x-x-----2-----------2--------4------x-x----2-------2-----------|
|-x-x-x-x-----0-----------0--------2------x-x----0-------------------|

James: 1:01  
|-------------------------2------------------------------2-----------|
|-------------------------3--------2---------------------2-----------|
|-------------1-----------4--------3-------------0-------4-----------|
|-------------2-----------4--------4-------------2-------4-----------|
|-------------2-----------2--------4-------------2-------2-----------|
|-------------0-----------0--------2-------------0-------0-----------|

Billy:1:10
  Lovely Girl Your The  Beauty In My World Without You There Aren't No Reasons Left Find
|0-0-0-0-0-0---------------------------------------------------------------------0-0-0-0-0-0|
|2-2-2-2-2-2---------------------------------------------------------------------2-2-2-2-2-2|
|2-2-2-2-2-2--------6-6-6-6-6-6--------------7---7-7-7-7---------4---4-4-4-4-----2-2-2-2-2-2|
|2-2-2-2-2-2--------6-6-6-6-6-6--------------7---7-7-7-7---------4---4-4-4-4-----2-2-2-2-2-2|
|0-0-0-0-0-0--------4-4-4-4-4-4--------------5---5-5-5-5---------2---2-2-2-2-----0-0-0-0-0-0|
|-------------------x-x-x-x-x-x--------------x---x-x-x-x------------------------------------|

James:1:10
|0-0-0-0-0-0---------------------------------------------------------------------0-0-0-0-0-0|
|2-2-2-2-2-2---------------------------------------------------------------------2-2-2-2-2-2|
|2-2-2-2-2-2--------6-6-6-6-6-6--------------7---7-7-7-7---------4---4-4-4-4-----2-2-2-2-2-2|
|2-2-2-2-2-2---------------------------------------------------------------------2-2-2-2-2-2|
|0-0-0-0-0-0--------4-4-4-4-4-4--------------5---5-5-5-5---------2---2-2-2-2-----0-0-0-0-0-0|
|-------------------x-x-x-x-x-x--------------x---x-x-x-x------------------------------------|

Billy and James 1:21: And I'll Pull Your Crookered Teeth  You'll Be Perfect Just Like Me 
|-----------------------------------------------------------------------------------------|
|-----------------------------------------------------------------------------------------|
|-----------------------------------------------------------------------------------------|
|4-4-x-x-x-x-4-4--4/7---4-4-x-x-x-x-4-4--4/7---4-4-x-x-x-x-4-4--4/7---4-4-x-x-x-x-4-4--4/7|X2
|4-4-x-x-x-x-4-4--4/7---4-4-x-x-x-x-4-4--4/7---4-4-x-x-x-x-4-4--4/7---4-4-x-x-x-x-4-4--4/7|
|2-2-x-x-x-x-2-2--2/5---2-2-x-x-x-x-2-2--2/5---2-2-x-x-x-x-2-2--2/5---2-2-x-x-x-x-2-2--2/5|

Billy:1:42    We   Must  Never  Be Apart  
|-------------------------2----|
|-------------------------3----|
|-------------0-----------4----|
|-------------2-----------4----|
|-------------2-----------2----|
|-------------0-----------0----|

James:1:42  
|-------------------------2----|
|-------------------------3----|
|-------------0-----------4----|
|-------------2-----------4----|
|-------------2-----------2----|
|-------------0-----------0----|

Billy:1:45
|------------------------------|
|------------------------------|
|------------------------------|
|----4-4-x-x-x-x-4-4---4-7-----|
|----4-4-x-x-x-x-4-4---4-7-----|
|----2-2-x-x-x-x-2-2---2-5-----|

Billy:1:48 we  Must    Never Be Apart       
|-------------------------2----|
|-------------------------3----|
|-------------0-----------4----|
|-------------2-----------4----|
|-------------2-----------2----|
|-------------0-----------0----|

James:1:48  
|-------------------------2----|
|-------------------------3----|
|-------------0-----------4----|
|-------------2-----------4----|
|-------------2-----------2----|
|-------------0-----------0----|

Billy:1:52
Lovely Girl  Murder In My World   Coffins For The Souls I've Left To Die  In Time        
|-0-0-0-0-0-0-----------------------------------------------0-0-0-0-0-0--0-0-0-0-0-0-|
|-2-2-2-2-2-2-----------------------------------------------2-2-2-2-2-2--0-0-0-0-0-0-|
|-2-2-2-2-2-2----6-6-6-6-6-6----7---7-7-7-7--4---4-4-4-4----2-2-2-2-2-2--0-0-0-0-0-0-| 
|-2-2-2-2-2-2----6-6-6-6-6-6----7---7-7-7-7--4---4-4-4-4----2-2-2-2-2-2--2-2-2-2-2-2-| 
|-0-0-0-0-0-0----4-4-4-4-4-4----5---5-5-5-5--2---2-2-2-2----0-0-0-0-0-0--2-2-2-2-2-2-|
|----------------x-x-x-x-x-x----x---x-x-x-x------------------------------------------|
X2 For This verse,
play to A then repeat
second time play A then Em



James:1:52                                                                                        
|-0-0-0-0-0-0-----------------------------------------------0-0-0-0-0-0--0-0-0-0-0-0-|
|-2-2-2-2-2-2-----------------------------------------------2-2-2-2-2-2--0-0-0-0-0-0-|
|-2-2-2-2-2-2----6-6-6-6-6-6----7---7-7-7-7--4---4-4-4-4----2-2-2-2-2-2--4-4-4-4-4-4-|X2
|-2-2-2-2-2-2-----------------------------------------------2-2-2-2-2-2--4-4-4-4-4-4-|
|-0-0-0-0-0-0----4-4-4-4-4-4----5---5-5-5-5--2---2-2-2-2----0-0-0-0-0-0--2-2-2-2-2-2-|
|----------------x-x-x-x-x-x----x---x-x-x-x------------------------------------------|

Billy:2:14
This is the start of the break down to the piano solo part...
|-------------------------------------------------------------------|
|-------------------------------------------------------------------| 
|-------------------------------------------------------------------| 
|-------------------------------------------------------------------| 
|-(4)--/---/---/---/---/(9)---\---\---\---\---\---\---\---\---------|
|-(2)--/---/---/---/---/(7)---\---\---\---\---\---\---\---\---------|

James:2:15
|-------------------------------------------------------------------|
|-------------------------------------------------------------------|
|-----------  Harmonic ---------------------------------------------|
|-4--4--<4> Slide up to A --4-4-<4>-<4>-<4>--4-4--x---x--x--4~-4~---|
|-4--4--<4> On 5th Fret   --4-4-<4>-<4>-<4>--4-4--x---x--x--4~-4~---|
|-2--2--<2>-----------------2-2-<2>-<2>-<2>--2-2-<2>-<2>-x--2~-2~--|

Pianno comes in with it's thing
|-------------------------|
|-------------------------|
|-------------------------|
|----------%--------------|
|-------------------------|
|-------------------------|

James:2:22 Pick Slide 
|-------------------------|
|-------------------------|
|-------------------------|
|-------------------------|
|-------------------------|
|---\---\---\---\---\-----|

Billy:3:03
 In You    I Feel So Hungry    In You  I Crash Cars
|---------------------------------------------|
|---------------------------------------------|
|---------------------------------------------|
|-4-4-x-x-x-x-4-4---4-7--4-4-x-x-x-x-4-4---4-7|
|-4-4-x-x-x-x-4-4---4-7--4-4-x-x-x-x-4-4---4-x|
|-2-2-x-x-x-x-2-2---2-5--2-2-x-x-x-x-2-2---2-5|

Billy:   We Must Never Be Apart
|------------------2---2--|
|------------------3---3--|
|--------0---0-----4---4--|
|-xx-----2---2-----4---4--|
|-xx-----2---2-----2---2--|
|-xx-----0---0-----0---0--|

Solo 
Billy:3:11
|-------------------------------------------------------------------------------|
|-------------------------------------------------------------------------------|
|----------------------------------------------------9b~----7h6-7h6-6~-6h76-----|
|--------------------------------7--7--9--9--11--11------------------------h9---|
|--------------------7--7--9--9-------------------------------------------------|
|---5--5--7--7--9--9------------------------------------------------------------|

|-------------------------------------------------------------------------------|
|-------------------------------------------------------------------------------|
|-------------------------------------------------------------------------------|
|--14~h12h14h12/11~-/9h11h9~/7~/9~~~~/14b~--------------------------------------|
|-------------------------------------------------------------------------------|
|-------------------------------------------------------------------------------|

James:3:11
|-------------------------------------------------------------------------------|
|----------------------------------------------------------------------2h3h2----|
|----------------------------------------------------9b~----7h6-7h6~----------h4|
|--------------------------------7--7--9--9--11--11-----------------------------|
|--------------------7--7--9--9-------------------------------------------------|
|---5--5--7--7--9--9------------------------------------------------------------|

                                          +   +
|----------------------------------------11b11bh911b--| 
|---7b~-5h7h5/4b~~-2h4h2h-----------------------------| 
|-------------------------4b~~------------------------| 
|-----------------------------------------------------| 
|-----------------------------------------------------|
|-----------------------------------------------------|

Then the song goes back to the verse, it's all there then it gets to this really cool outro
4:38    +  +
|-------------------------------------------------------------------------12---------------------|
|------9b--9b---9b-----------------------------------------------------/12---10~---17b----19~----|
|-----------------------9~-------------------------------------------------------------------17~-|
|--9b-----------------------3/12b/3-3/11h12b/3---7h9h7h97h97h9\3--\2-----------------------------|
|------------------------------------------------------------------------------------------------|
|------------------------------------------------------------------------------------------------|

|------------------------|
|/-\--19b-19b------------| 
|------18b-18b-18~-18~---|
|------------------------| 
|------------------------| 
|------------------------| 

Outro Billy & James 4:58
|------------------------|
|------------------------|
|------------------------|
|--4-4-4-4---4-4-4-/-7---|
|--4-4-4-4---4-4-4-/-7---|X4
|--2-2-2-0---2-2-2-/-5---|

Finish on:
|------------------------|
|------------------------|
|------------------------|
|-4----------------------|
|-4----------------------|
|-2--------------\-\-\---|


************************************

| /   slide up
| \   slide down
| h   hammer-on
| p   pull-off
| ~   vibrato
| +   harmonic
| x   Mute note
| b   Bend
| pb  Pre-bend
| br  Bend release
| pbr Pre-bend release
| brb Bend release bend

************************************

Please don't edit this tab without e-mailing me first! please comment and e-mail 
me with any questions.
            
Submit corrections

comments powered by Disqus
↑ Back to top | Smashing Pumpkins Tabs for Ava Adore. Lyrics for acoustic guitar and electric guitar. Tablatures and chords are parodies/interpretations of the original songs. You may use it for private study, scholarship, research or language learning purposes only