» » »

Ava Adore Tabs (ver.2)

Artists:  A B C D E F G H I J K L M N O P Q R S T U V W X Y Z # 

Ava Adore Tabs (ver.2)

Smashing Pumpkins
Rating:
4/5 (5 votes)

Hard to play? Try these video lessons and learn fast.
                
Tuning:1/2 step down

(Main Riff when played live)
e|---------------------------------|
B|---------------------------------|
G|---------------------------------|
D|-4--4--x-x-x-x--4--4--4/7--x-x---|
A|-4--4--x-x-x-x--4--4--4/7--x-x---|
E|-2--2--x-x-x-x--2--2--2/5--x-x---|

(Pre Chorus, repeated twice)
e|-0---0--0-0--2---2--2-2--2-----|
B|-0---0--0-0--3---3--3-3--2-----|
G|-1---1--1-1--4---4--4-4--2-----|
D|-2---2--2-2--4---4--4-4--4-----|
A|-2---2--2-2--2---2--2-2--4-----|
E|-0---0--0-0--------------2-----|
   Eb          Bbm         Fm

(Chorus)(repeat as necessary)
e|-0---0--0-0--0---0--0-0--4---4--4-4--4---4--4-4--x---x--x-x--2---2--2-2--|
B|-2---2--2-2--2---2--2-2--5---5--5-5--5---5--5-5--7---7--7-7--3---3--3-3--|
G|-2---2--2-2--2---2--2-2--6---6--6-6--6---6--6-6--7---7--7-7--4---4--4-4--|
D|-2---2--2-2--2---2--2-2--6---6--6-6--6---6--6-6--7---7--7-7--4---4--4-4--|
A|-0---0--0-0--0---0--0-0--4---4--4-4--4---4--4-4--5---5--5-5--2---2--2-2--|
E|-------------------------------------------------------------------------|
   Ab                      Cm                      Db          Bbm

e|-0-----|
B|-2-----|
G|-2-----|
D|-2-----|
A|-0-----|
E|-------|
   Ab
(repeat as necessary)

(Solo)
e|-------------------------------------9-9-12---9----9--------9b10--9-7-9-7|
B|-------------------------10-10-12-12------------12---12------------------|
G|---------------9-9-11-11-------------------------------------------------|
D|-7-7-9-9-11-11-----------------------------------------------------------|
A|-------------------------------------------------------------------------|
E|-------------------------------------------------------------------------|

e|-------7----7--7b9---|
B|---10----10----------|
G|---------------------|
D|---------------------|
A|---------------------|
E|---------------------|

| /  slide up
| \  slide down
| h  hammer-on
| p  pull-off
| ~  vibrato
| +  harmonic
| x  Mute note
===============================================================================
            
Hard to play? Try these video lessons and learn fast. | Correct




comments powered by Disqus
↑ Back to top | Tablatures and chords are parodies/interpretations of the original songs. You may use it for private study, scholarship, research or language learning purposes only