» » »

Smashing Pumpkins, Ava Adore Tabs (ver.3)

Artists:  A B C D E F G H I J K L M N O P Q R S T U V W X Y Z # 

Ava Adore Tabs (ver.3)

Smashing Pumpkins Tabs
Rating:
0/5 (0 votes)
Ava Adore lessons Tabs too difficult? Try these video lessons and learn fast
                Tuning:  Eb
This song is really easy, it's only a couple of riffs.
All throught the song the bass is playing this:
 E|---2-2---2-2-5-5----

Bridge
 e|-------------------------------------------------------|
Bb|-------------------------------------------------------| 
Gb|--1---1-----4---4------------1---1-----4---4-----------| 
Db|--2---2-----4---4----4-------2---2-----4---4----7------|
Ab|--2---2-----2---2----4-------2---2-----2---2----7------| 
Eb|---------------------2--------------------------5------|
     We must never be apart     We must never be apart

Chorus
 e|--------------------------------------------------------|
Bb|--------------------------------------------------------| 
Gb|---------------------------6----------------------------| 
Db|---7-----------------------6----------------------------|
Ab|---7-----------------------4----------------------------|
Eb|---5----------------------------------------------------|
1.   lovely girl you're the beauty in my world without
2.                          murder             dressing
 e|--------------------------------------------------------|
Bb|--------------------------------------------------------| 
Gb|---7-----------------4----------------------------------| 
Db|---7-----------------4---------------7------------------|
Ab|---5-----------------2---------------7------------------|
Eb|-------------------------------------5------------------|
1.   you there are no reasons left to find
2.   coffins for the souls i've left to die
 e|--------------------------------------------------------|
Bb|--------------------------------------------------------| 
Gb|---------------------6------------------7---------------| 
Db|-7-------------------6------------------7---------------|
Ab|-7-------------------4------------------5---------------|
Eb|-5------------------------------------------------------|
      Drinking Mercury   To the mystery of all that you should
 e|--------------------------------------------------------|
Bb|--------------------------------------------------------| 
Gb|---4-----------------------------4----------------------| 
Db|---4-------------7---------------4----------------------|
Ab|---2-------------7---------------2----------------------|
Eb|-----------------5--------------------------------------|
     ever seek to find          in time

Solo
 e|--------------------------------------------------------|
Bb|---------------------------------8-6---6-----10-8-------| 
Gb|-------------------------6-6-9-9-----8---8--------10-8--| 
Db|-----------------7-7-9-9--------------------------------|
Ab|---------7-7-9-9----------------------------------------|
Eb|-7-7-9-9------------------------------------------------|
 e|--------------------------------------------------------|
Bb|--9h11p9---11/13~~---14/17------------------------------| 
Gb|--------------------------------------------------------| 
Db|--------------------------------------------------------|
Ab|--------------------------------------------------------|
Eb|--------------------------------------------------------|
(that didn't take me long to figure out, I hope it's right)

Outro
Just play this after each line :
 e|------------------------------------------------------------|
Bb|------------------------------------------------------------| 
Gb|-1-1---4-4--------------------------------------------------| 
Db|-2-2---4-4---4-4--------------------------------------------|
Ab|-2-2---2-2---4-4--------------------------------------------|
Eb|-------------2-2--------------------------------------------|
            

comments powered by Disqus
↑ Back to top | Smashing Pumpkins Tabs for Ava Adore. Lyrics for acoustic guitar and electric guitar. Tablatures and chords are parodies/interpretations of the original songs. You may use it for private study, scholarship, research or language learning purposes only